ISO-10303-21;
HEADER;
FILE_DESCRIPTION (( 'STEP AP203' ),
    '1' );
FILE_NAME ('970900.step',
    '2021-12-17T10:17:53',
    ( '' ),
    ( '' ),
    'SwSTEP 2.0',
    'SolidWorks 2019',
    '' );
FILE_SCHEMA (( 'CONFIG_CONTROL_DESIGN' ));
ENDSEC;

DATA;
#1 = DIRECTION ( 'NONE',  ( -3.566856446732978810E-31, -1.000000000000000000, -1.003980835274418424E-16 ) ) ;
#2 = FACE_OUTER_BOUND ( 'NONE', #201, .T. ) ;
#3 = CARTESIAN_POINT ( 'NONE',  ( 9.776147748760773395E-15, 0.3579999999999995963, 2.799999999999999822 ) ) ;
#4 = AXIS2_PLACEMENT_3D ( 'NONE', #259, #238, #55 ) ;
#5 = DIRECTION ( 'NONE',  ( -3.491481338843133355E-15, 1.224646799147353207E-16, -1.000000000000000000 ) ) ;
#6 = CARTESIAN_POINT ( 'NONE',  ( 0.0000000000000000000, 0.0000000000000000000, 0.0000000000000000000 ) ) ;
#7 = CARTESIAN_POINT ( 'NONE',  ( 1.833027702892645406E-15, 0.3579999999999995963, 0.5250000000000000222 ) ) ;
#8 = ORIENTED_EDGE ( 'NONE', *, *, #21, .T. ) ;
#9 = AXIS2_PLACEMENT_3D ( 'NONE', #109, #139, #211 ) ;
#10 = CARTESIAN_POINT ( 'NONE',  ( 1.222018468595096674E-14, 0.3579999999999995963, 3.500000000000000000 ) ) ;
#11 = UNCERTAINTY_MEASURE_WITH_UNIT (LENGTH_MEASURE( 1.000000000000000082E-05 ), #124, 'distance_accuracy_value', 'NONE');
#12 = APPROVAL_STATUS ( 'not_yet_approved' ) ;
#13 = EDGE_LOOP ( 'NONE', ( #63 ) ) ;
#14 = EDGE_CURVE ( 'NONE', #234, #234, #16, .T. ) ;
#15 =( NAMED_UNIT ( * ) PLANE_ANGLE_UNIT ( ) SI_UNIT ( $, .RADIAN. ) );
#16 = CIRCLE ( 'NONE', #90, 0.7499999999999970024 ) ;
#17 = CIRCLE ( 'NONE', #91, 0.3580000000000000404 ) ;
#18 = APPROVAL_STATUS ( 'not_yet_approved' ) ;
#19 = MANIFOLD_SOLID_BREP ( 'Corps-Déplacer/Copier1[1]', #144 ) ;
#20 = ORIENTED_EDGE ( 'NONE', *, *, #77, .T. ) ;
#21 = EDGE_CURVE ( 'NONE', #70, #70, #131, .T. ) ;
#22 = ORIENTED_EDGE ( 'NONE', *, *, #169, .T. ) ;
#23 = TOROIDAL_SURFACE ( 'NONE', #269, 2.358000000000000096, 2.000000000000000000 ) ;
#24 = CARTESIAN_POINT ( 'NONE',  ( -1.093179516250849186E-31, 3.834357585063418499E-33, -3.130990574370543075E-17 ) ) ;
#25 = CC_DESIGN_PERSON_AND_ORGANIZATION_ASSIGNMENT ( #265, #78, ( #226 ) ) ;
#26 = FACE_BOUND ( 'NONE', #157, .T. ) ;
#27 = AXIS2_PLACEMENT_3D ( 'NONE', #168, #75, #32 ) ;
#28 = CARTESIAN_POINT ( 'NONE',  ( 2.519272067862218831E-16, -8.836416909251061951E-18, 0.07215481978480096925 ) ) ;
#29 = PLANE ( 'NONE',  #285 ) ;
#30 = FACE_BOUND ( 'NONE', #279, .T. ) ;
#31 = CONICAL_SURFACE ( 'NONE', #73, 0.2699758138782497596, 1.047197551196592302 ) ;
#32 = DIRECTION ( 'NONE',  ( 0.0000000000000000000, 1.000000000000000000, 0.0000000000000000000 ) ) ;
#33 = MECHANICAL_CONTEXT ( 'NONE', #185, 'mechanical' ) ;
#34 = CIRCLE ( 'NONE', #27, 0.3579999999999999294 ) ;
#35 = APPLICATION_PROTOCOL_DEFINITION ( 'international standard', 'config_control_design', 1994, #51 ) ;
#36 = DATE_AND_TIME ( #172, #42 ) ;
#37 = AXIS2_PLACEMENT_3D ( 'NONE', #287, #115, #261 ) ;
#38 = ADVANCED_FACE ( 'NONE', ( #302, #298 ), #114, .T. ) ;
#39 = APPROVAL_ROLE ( '' ) ;
#40 = CARTESIAN_POINT ( 'NONE',  ( 9.776147748760773395E-15, -3.429011037612588783E-16, 2.799999999999999822 ) ) ;
#41 = DIRECTION ( 'NONE',  ( -3.491481338843133355E-15, 1.224646799147353207E-16, -1.000000000000000000 ) ) ;
#42 = LOCAL_TIME ( 11, 17, 53.00000000000000000, #177 ) ;
#43 = CARTESIAN_POINT ( 'NONE',  ( 1.222018468595096359E-14, -4.336808689942017736E-16, 3.499999999999999112 ) ) ;
#44 = CIRCLE ( 'NONE', #217, 0.1449999999999999900 ) ;
#45 = PRODUCT_DEFINITION ( 'UNKNOWN', '', #226, #268 ) ;
#46 = DIRECTION ( 'NONE',  ( 3.491481338843133355E-15, -1.224646799147353207E-16, 1.000000000000000000 ) ) ;
#47 = DIRECTION ( 'NONE',  ( -4.275831445896958607E-31, -1.000000000000000000, -1.224646799147353207E-16 ) ) ;
#48 = ADVANCED_FACE ( 'NONE', ( #69, #254 ), #107, .T. ) ;
#49 = CARTESIAN_POINT ( 'NONE',  ( -5.465897581254245930E-32, 1.917178792531709250E-33, -1.565495287185271538E-17 ) ) ;
#50 = APPROVAL_PERSON_ORGANIZATION ( #60, #296, #221 ) ;
#51 = APPLICATION_CONTEXT ( 'configuration controlled 3d designs of mechanical parts and assemblies' ) ;
#52 = FACE_OUTER_BOUND ( 'NONE', #208, .T. ) ;
#53 = DIRECTION ( 'NONE',  ( 3.491481338843133355E-15, -1.224646799147353207E-16, 1.000000000000000000 ) ) ;
#54 = CC_DESIGN_DATE_AND_TIME_ASSIGNMENT ( #204, #250, ( #101 ) ) ;
#55 = DIRECTION ( 'NONE',  ( 0.0000000000000000000, -1.000000000000000000, 0.0000000000000000000 ) ) ;
#56 = AXIS2_PLACEMENT_3D ( 'NONE', #98, #121, #237 ) ;
#57 = VERTEX_POINT ( 'NONE', #270 ) ;
#58 =( NAMED_UNIT ( * ) SI_UNIT ( $, .STERADIAN. ) SOLID_ANGLE_UNIT ( ) );
#59 = AXIS2_PLACEMENT_3D ( 'NONE', #65, #252, #134 ) ;
#60 = PERSON_AND_ORGANIZATION ( #294, #82 ) ;
#61 = EDGE_LOOP ( 'NONE', ( #248 ) ) ;
#62 = PERSON_AND_ORGANIZATION ( #294, #82 ) ;
#63 = ORIENTED_EDGE ( 'NONE', *, *, #21, .F. ) ;
#64 = CIRCLE ( 'NONE', #37, 0.7499999999999984457 ) ;
#65 = CARTESIAN_POINT ( 'NONE',  ( 1.833027702892645406E-15, -6.429395695523604892E-17, 0.5250000000000000222 ) ) ;
#66 = DIRECTION ( 'NONE',  ( 4.275831445896958607E-31, 1.000000000000000000, 1.224646799147353454E-16 ) ) ;
#67 = APPROVAL ( #12, 'UNSPECIFIED' ) ;
#68 = AXIS2_PLACEMENT_3D ( 'NONE', #179, #205, #84 ) ;
#69 = FACE_BOUND ( 'NONE', #303, .T. ) ;
#70 = VERTEX_POINT ( 'NONE', #3 ) ;
#71 = DIRECTION ( 'NONE',  ( 0.0000000000000000000, 1.000000000000000000, 0.0000000000000000000 ) ) ;
#72 = FACE_OUTER_BOUND ( 'NONE', #86, .T. ) ;
#73 = AXIS2_PLACEMENT_3D ( 'NONE', #213, #167, #1 ) ;
#74 = SHAPE_DEFINITION_REPRESENTATION ( #88, #117 ) ;
#75 = DIRECTION ( 'NONE',  ( -3.491481338843133355E-15, 1.224646799147353207E-16, -1.000000000000000000 ) ) ;
#76 = CARTESIAN_POINT ( 'NONE',  ( -4.731839565957902296E-32, 0.1449999999999999900, -1.355252715606880543E-17 ) ) ;
#77 = EDGE_CURVE ( 'NONE', #193, #193, #44, .T. ) ;
#78 = PERSON_AND_ORGANIZATION_ROLE ( 'design_supplier' ) ;
#79 = CC_DESIGN_APPROVAL ( #180, ( #101 ) ) ;
#80 = ORIENTED_EDGE ( 'NONE', *, *, #223, .F. ) ;
#81 = PERSON_AND_ORGANIZATION_ROLE ( 'creator' ) ;
#82 = ORGANIZATION ( 'UNSPECIFIED', 'UNSPECIFIED', '' ) ;
#83 = PERSON_AND_ORGANIZATION ( #294, #82 ) ;
#84 = DIRECTION ( 'NONE',  ( 0.0000000000000000000, 1.000000000000000000, 0.0000000000000000000 ) ) ;
#85 = AXIS2_PLACEMENT_3D ( 'NONE', #28, #92, #258 ) ;
#86 = EDGE_LOOP ( 'NONE', ( #125 ) ) ;
#87 = EDGE_LOOP ( 'NONE', ( #8 ) ) ;
#88 = PRODUCT_DEFINITION_SHAPE ( 'NONE', 'NONE',  #45 ) ;
#89 = CARTESIAN_POINT ( 'NONE',  ( 1.824742037712254005E-14, -6.400333494247928583E-16, 5.226268911741809298 ) ) ;
#90 = AXIS2_PLACEMENT_3D ( 'NONE', #274, #253, #154 ) ;
#91 = AXIS2_PLACEMENT_3D ( 'NONE', #236, #5, #283 ) ;
#92 = DIRECTION ( 'NONE',  ( -3.491481338843133355E-15, 1.224646799147353207E-16, -1.000000000000000000 ) ) ;
#93 = DIRECTION ( 'NONE',  ( -3.491481338843133355E-15, 1.224646799147353207E-16, -1.000000000000000000 ) ) ;
#94 = CARTESIAN_POINT ( 'NONE',  ( 0.0000000000000000000, 0.0000000000000000000, 0.0000000000000000000 ) ) ;
#95 = FACE_OUTER_BOUND ( 'NONE', #251, .T. ) ;
#96 = AXIS2_PLACEMENT_3D ( 'NONE', #89, #46, #206 ) ;
#97 = ADVANCED_FACE ( 'NONE', ( #227, #184 ), #23, .F. ) ;
#98 = CARTESIAN_POINT ( 'NONE',  ( 1.047444401652940007E-13, 4.499279347985507822E-33, 30.00000000000000000 ) ) ;
#99 = COORDINATED_UNIVERSAL_TIME_OFFSET ( 1, 0, .AHEAD. ) ;
#100 = VERTEX_POINT ( 'NONE', #150 ) ;
#101 = SECURITY_CLASSIFICATION ( '', '', #170 ) ;
#102 = DIRECTION ( 'NONE',  ( 0.0000000000000000000, 0.0000000000000000000, 1.000000000000000000 ) ) ;
#103 = APPROVAL_ROLE ( '' ) ;
#104 = ORIENTED_EDGE ( 'NONE', *, *, #223, .T. ) ;
#105 = CC_DESIGN_PERSON_AND_ORGANIZATION_ASSIGNMENT ( #62, #108, ( #101 ) ) ;
#106 = PERSON_AND_ORGANIZATION ( #294, #82 ) ;
#107 = CONICAL_SURFACE ( 'NONE', #96, 0.7499999999999970024, 0.2617993877991424689 ) ;
#108 = PERSON_AND_ORGANIZATION_ROLE ( 'classification_officer' ) ;
#109 = CARTESIAN_POINT ( 'NONE',  ( 0.0000000000000000000, 0.0000000000000000000, 0.0000000000000000000 ) ) ;
#110 = ORIENTED_EDGE ( 'NONE', *, *, #129, .F. ) ;
#111 = CC_DESIGN_PERSON_AND_ORGANIZATION_ASSIGNMENT ( #128, #171, ( #226 ) ) ;
#112 = AXIS2_PLACEMENT_3D ( 'NONE', #282, #53, #47 ) ;
#113 = EDGE_LOOP ( 'NONE', ( #133 ) ) ;
#114 = CYLINDRICAL_SURFACE ( 'NONE', #176, 0.3579999999999998184 ) ;
#115 = DIRECTION ( 'NONE',  ( -3.491481338843133355E-15, 1.224646799147353207E-16, -1.000000000000000000 ) ) ;
#116 = MANIFOLD_SOLID_BREP ( 'Corps-Déplacer/Copier1[2]', #280 ) ;
#117 = ADVANCED_BREP_SHAPE_REPRESENTATION ( '970900', ( #19, #116, #235 ), #230 ) ;
#118 = DIRECTION ( 'NONE',  ( -4.275831445896958607E-31, -1.000000000000000000, -1.224646799147353207E-16 ) ) ;
#119 = CYLINDRICAL_SURFACE ( 'NONE', #207, 0.3579999999999999849 ) ;
#120 = ADVANCED_FACE ( 'NONE', ( #232, #186 ), #161, .T. ) ;
#121 = DIRECTION ( 'NONE',  ( -3.491481338843133355E-15, 1.224646799147353207E-16, -1.000000000000000000 ) ) ;
#122 = CC_DESIGN_APPROVAL ( #296, ( #226 ) ) ;
#123 = PLANE ( 'NONE',  #112 ) ;
#124 =( LENGTH_UNIT ( ) NAMED_UNIT ( * ) SI_UNIT ( .MILLI., .METRE. ) );
#125 = ORIENTED_EDGE ( 'NONE', *, *, #199, .T. ) ;
#126 = AXIS2_PLACEMENT_3D ( 'NONE', #141, #93, #71 ) ;
#127 = ORIENTED_EDGE ( 'NONE', *, *, #14, .F. ) ;
#128 = PERSON_AND_ORGANIZATION ( #294, #82 ) ;
#129 = EDGE_CURVE ( 'NONE', #288, #288, #132, .T. ) ;
#130 = DATE_TIME_ROLE ( 'creation_date' ) ;
#131 = CIRCLE ( 'NONE', #165, 0.3579999999999999294 ) ;
#132 = CIRCLE ( 'NONE', #68, 0.4261483474218609735 ) ;
#133 = ORIENTED_EDGE ( 'NONE', *, *, #151, .F. ) ;
#134 = DIRECTION ( 'NONE',  ( 0.0000000000000000000, 1.000000000000000000, 0.0000000000000000000 ) ) ;
#135 = CARTESIAN_POINT ( 'NONE',  ( 0.0000000000000000000, 0.0000000000000000000, 0.0000000000000000000 ) ) ;
#136 = CIRCLE ( 'NONE', #85, 0.2699758138782497596 ) ;
#137 = DIRECTION ( 'NONE',  ( 4.336766036083419825E-31, 1.000000000000000000, 1.224646799147353207E-16 ) ) ;
#138 = EDGE_CURVE ( 'NONE', #147, #147, #212, .T. ) ;
#139 = DIRECTION ( 'NONE',  ( -3.491481338843133355E-15, 1.224646799147353207E-16, -1.000000000000000000 ) ) ;
#140 = DIRECTION ( 'NONE',  ( -3.491481338843133355E-15, 1.224646799147353207E-16, -1.000000000000000000 ) ) ;
#141 = CARTESIAN_POINT ( 'NONE',  ( 1.047444401652940007E-13, -3.673940397442059178E-15, 30.00000000000000000 ) ) ;
#142 = DIRECTION ( 'NONE',  ( 3.491481338843133355E-15, -1.224646799147353207E-16, 1.000000000000000000 ) ) ;
#143 = DIRECTION ( 'NONE',  ( 3.491481338843133355E-15, -1.224646799147353207E-16, 1.000000000000000000 ) ) ;
#144 = CLOSED_SHELL ( 'NONE', ( #286, #231, #97, #48, #120, #187, #264 ) ) ;
#145 = DIRECTION ( 'NONE',  ( 4.275831445896958607E-31, 1.000000000000000000, 1.224646799147353207E-16 ) ) ;
#146 = APPROVAL_DATE_TIME ( #272, #67 ) ;
#147 = VERTEX_POINT ( 'NONE', #7 ) ;
#148 = PRODUCT ( '970900', '970900', '', ( #33 ) ) ;
#149 = ORIENTED_EDGE ( 'NONE', *, *, #77, .F. ) ;
#150 = CARTESIAN_POINT ( 'NONE',  ( 2.519272067862219817E-16, 0.2699758138782497596, 0.07215481978480099701 ) ) ;
#151 = EDGE_CURVE ( 'NONE', #197, #197, #64, .T. ) ;
#152 = APPROVAL_STATUS ( 'not_yet_approved' ) ;
#153 = COORDINATED_UNIVERSAL_TIME_OFFSET ( 1, 0, .AHEAD. ) ;
#154 = DIRECTION ( 'NONE',  ( 0.0000000000000000000, 1.000000000000000000, 0.0000000000000000000 ) ) ;
#155 = APPROVAL_PERSON_ORGANIZATION ( #83, #180, #39 ) ;
#156 = CC_DESIGN_PERSON_AND_ORGANIZATION_ASSIGNMENT ( #267, #246, ( #148 ) ) ;
#157 = EDGE_LOOP ( 'NONE', ( #80 ) ) ;
#158 = EDGE_LOOP ( 'NONE', ( #127 ) ) ;
#159 = DIRECTION ( 'NONE',  ( 4.275831445896958607E-31, 1.000000000000000000, 1.224646799147353207E-16 ) ) ;
#160 = CC_DESIGN_SECURITY_CLASSIFICATION ( #101, ( #226 ) ) ;
#161 = CYLINDRICAL_SURFACE ( 'NONE', #9, 0.7499999999999977796 ) ;
#162 = CARTESIAN_POINT ( 'NONE',  ( 1.402750841817621839E-14, 0.4261483474218604739, 4.017638090205028156 ) ) ;
#163 = PLANE ( 'NONE',  #192 ) ;
#164 = ADVANCED_FACE ( 'NONE', ( #26, #257 ), #240, .T. ) ;
#165 = AXIS2_PLACEMENT_3D ( 'NONE', #40, #41, #228 ) ;
#166 = FACE_OUTER_BOUND ( 'NONE', #113, .T. ) ;
#167 = DIRECTION ( 'NONE',  ( 3.491481338843133355E-15, -1.224646799147353207E-16, 1.000000000000000000 ) ) ;
#168 = CARTESIAN_POINT ( 'NONE',  ( 9.776147748760773395E-15, -3.429011037612588783E-16, 2.799999999999999822 ) ) ;
#169 = EDGE_CURVE ( 'NONE', #242, #242, #17, .T. ) ;
#170 = SECURITY_CLASSIFICATION_LEVEL ( 'unclassified' ) ;
#171 = PERSON_AND_ORGANIZATION_ROLE ( 'creator' ) ;
#172 = CALENDAR_DATE ( 2021, 17, 12 ) ;
#173 = ADVANCED_FACE ( 'NONE', ( #190 ), #123, .T. ) ;
#174 = APPROVAL_PERSON_ORGANIZATION ( #106, #67, #103 ) ;
#175 = EDGE_LOOP ( 'NONE', ( #224 ) ) ;
#176 = AXIS2_PLACEMENT_3D ( 'NONE', #135, #229, #159 ) ;
#177 = COORDINATED_UNIVERSAL_TIME_OFFSET ( 1, 0, .AHEAD. ) ;
#178 = CALENDAR_DATE ( 2021, 17, 12 ) ;
#179 = CARTESIAN_POINT ( 'NONE',  ( 1.402750841817621839E-14, -4.920187627302072450E-16, 4.017638090205028156 ) ) ;
#180 = APPROVAL ( #18, 'UNSPECIFIED' ) ;
#181 = ORIENTED_EDGE ( 'NONE', *, *, #138, .T. ) ;
#182 = CIRCLE ( 'NONE', #203, 0.5999999999999986455 ) ;
#183 = ORIENTED_EDGE ( 'NONE', *, *, #199, .F. ) ;
#184 = FACE_OUTER_BOUND ( 'NONE', #266, .T. ) ;
#185 = APPLICATION_CONTEXT ( 'configuration controlled 3d designs of mechanical parts and assemblies' ) ;
#186 = FACE_OUTER_BOUND ( 'NONE', #300, .T. ) ;
#187 = ADVANCED_FACE ( 'NONE', ( #166, #219 ), #262, .T. ) ;
#188 = LOCAL_TIME ( 11, 17, 53.00000000000000000, #200 ) ;
#189 = DIRECTION ( 'NONE',  ( -3.491481338843133355E-15, 1.224646799147353207E-16, -1.000000000000000000 ) ) ;
#190 = FACE_OUTER_BOUND ( 'NONE', #13, .T. ) ;
#191 = PLANE ( 'NONE',  #56 ) ;
#192 = AXIS2_PLACEMENT_3D ( 'NONE', #49, #142, #118 ) ;
#193 = VERTEX_POINT ( 'NONE', #76 ) ;
#194 = DIRECTION ( 'NONE',  ( 0.0000000000000000000, 1.000000000000000000, 0.0000000000000000000 ) ) ;
#195 = DATE_AND_TIME ( #247, #255 ) ;
#196 = CC_DESIGN_APPROVAL ( #67, ( #45 ) ) ;
#197 = VERTEX_POINT ( 'NONE', #244 ) ;
#198 = DIRECTION ( 'NONE',  ( 1.000000000000000000, 0.0000000000000000000, 0.0000000000000000000 ) ) ;
#199 = EDGE_CURVE ( 'NONE', #57, #57, #34, .T. ) ;
#200 = COORDINATED_UNIVERSAL_TIME_OFFSET ( 1, 0, .AHEAD. ) ;
#201 = EDGE_LOOP ( 'NONE', ( #183 ) ) ;
#202 = CARTESIAN_POINT ( 'NONE',  ( 1.047444401652940007E-13, 0.5999999999999949818, 30.00000000000000000 ) ) ;
#203 = AXIS2_PLACEMENT_3D ( 'NONE', #218, #140, #194 ) ;
#204 = DATE_AND_TIME ( #225, #275 ) ;
#205 = DIRECTION ( 'NONE',  ( -3.491481338843133355E-15, 1.224646799147353207E-16, -1.000000000000000000 ) ) ;
#206 = DIRECTION ( 'NONE',  ( 0.0000000000000000000, -1.000000000000000000, 0.0000000000000000000 ) ) ;
#207 = AXIS2_PLACEMENT_3D ( 'NONE', #94, #189, #145 ) ;
#208 = EDGE_LOOP ( 'NONE', ( #20 ) ) ;
#209 = CC_DESIGN_PERSON_AND_ORGANIZATION_ASSIGNMENT ( #293, #81, ( #45 ) ) ;
#210 = ORIENTED_EDGE ( 'NONE', *, *, #290, .F. ) ;
#211 = DIRECTION ( 'NONE',  ( 4.275831445896958607E-31, 1.000000000000000000, 1.224646799147353207E-16 ) ) ;
#212 = CIRCLE ( 'NONE', #59, 0.3579999999999996518 ) ;
#213 = CARTESIAN_POINT ( 'NONE',  ( 2.519272067862218831E-16, -8.836416909251061951E-18, 0.07215481978480096925 ) ) ;
#214 = CC_DESIGN_DATE_AND_TIME_ASSIGNMENT ( #36, #130, ( #45 ) ) ;
#215 = FACE_OUTER_BOUND ( 'NONE', #233, .T. ) ;
#216 = CARTESIAN_POINT ( 'NONE',  ( 1.824742037712254005E-14, 0.7499999999999963363, 5.226268911741809298 ) ) ;
#217 = AXIS2_PLACEMENT_3D ( 'NONE', #24, #256, #66 ) ;
#218 = CARTESIAN_POINT ( 'NONE',  ( 1.047444401652940007E-13, -3.673940397442059178E-15, 30.00000000000000000 ) ) ;
#219 = FACE_BOUND ( 'NONE', #61, .T. ) ;
#220 = CALENDAR_DATE ( 2021, 17, 12 ) ;
#221 = APPROVAL_ROLE ( '' ) ;
#222 = EDGE_LOOP ( 'NONE', ( #210 ) ) ;
#223 = EDGE_CURVE ( 'NONE', #100, #100, #136, .T. ) ;
#224 = ORIENTED_EDGE ( 'NONE', *, *, #138, .F. ) ;
#225 = CALENDAR_DATE ( 2021, 17, 12 ) ;
#226 = PRODUCT_DEFINITION_FORMATION_WITH_SPECIFIED_SOURCE ( 'ANY', '', #148, .NOT_KNOWN. ) ;
#227 = FACE_OUTER_BOUND ( 'NONE', #277, .T. ) ;
#228 = DIRECTION ( 'NONE',  ( 0.0000000000000000000, 1.000000000000000000, 0.0000000000000000000 ) ) ;
#229 = DIRECTION ( 'NONE',  ( -3.491481338843133355E-15, 1.224646799147353207E-16, -1.000000000000000000 ) ) ;
#230 =( GEOMETRIC_REPRESENTATION_CONTEXT ( 3 ) GLOBAL_UNCERTAINTY_ASSIGNED_CONTEXT ( ( #11 ) ) GLOBAL_UNIT_ASSIGNED_CONTEXT ( ( #124, #15, #58 ) ) REPRESENTATION_CONTEXT ( 'NONE', 'WORKASPACE' ) );
#231 = ADVANCED_FACE ( 'NONE', ( #2, #95 ), #119, .T. ) ;
#232 = FACE_OUTER_BOUND ( 'NONE', #158, .T. ) ;
#233 = EDGE_LOOP ( 'NONE', ( #104 ) ) ;
#234 = VERTEX_POINT ( 'NONE', #216 ) ;
#235 = AXIS2_PLACEMENT_3D ( 'NONE', #6, #102, #198 ) ;
#236 = CARTESIAN_POINT ( 'NONE',  ( 1.222018468595096674E-14, -4.286263797015736595E-16, 3.500000000000000000 ) ) ;
#237 = DIRECTION ( 'NONE',  ( 4.275831445896958607E-31, 1.000000000000000000, 1.224646799147353207E-16 ) ) ;
#238 = DIRECTION ( 'NONE',  ( 3.491481338843133355E-15, -1.224646799147353207E-16, 1.000000000000000000 ) ) ;
#239 = ADVANCED_FACE ( 'NONE', ( #52 ), #163, .F. ) ;
#240 = CONICAL_SURFACE ( 'NONE', #4, 0.3579999999999996518, 0.1919862177193626951 ) ;
#241 = DIRECTION ( 'NONE',  ( -4.275831445896958607E-31, -1.000000000000000000, -1.224646799147353207E-16 ) ) ;
#242 = VERTEX_POINT ( 'NONE', #10 ) ;
#243 = EDGE_LOOP ( 'NONE', ( #181 ) ) ;
#244 = CARTESIAN_POINT ( 'NONE',  ( 1.042207179644675275E-13, 0.7499999999999947820, 29.84999999999999787 ) ) ;
#245 = ORIENTED_EDGE ( 'NONE', *, *, #169, .F. ) ;
#246 = PERSON_AND_ORGANIZATION_ROLE ( 'design_owner' ) ;
#247 = CALENDAR_DATE ( 2021, 17, 12 ) ;
#248 = ORIENTED_EDGE ( 'NONE', *, *, #290, .T. ) ;
#249 = ADVANCED_FACE ( 'NONE', ( #30, #215 ), #31, .T. ) ;
#250 = DATE_TIME_ROLE ( 'classification_date' ) ;
#251 = EDGE_LOOP ( 'NONE', ( #22 ) ) ;
#252 = DIRECTION ( 'NONE',  ( -3.491481338843133355E-15, 1.224646799147353207E-16, -1.000000000000000000 ) ) ;
#253 = DIRECTION ( 'NONE',  ( -3.491481338843133355E-15, 1.224646799147353207E-16, -1.000000000000000000 ) ) ;
#254 = FACE_OUTER_BOUND ( 'NONE', #278, .T. ) ;
#255 = LOCAL_TIME ( 11, 17, 53.00000000000000000, #99 ) ;
#256 = DIRECTION ( 'NONE',  ( -3.491481338843133355E-15, 1.224646799147353207E-16, -1.000000000000000000 ) ) ;
#257 = FACE_OUTER_BOUND ( 'NONE', #243, .T. ) ;
#258 = DIRECTION ( 'NONE',  ( 3.566856446732978810E-31, 1.000000000000000000, 1.003980835274418424E-16 ) ) ;
#259 = CARTESIAN_POINT ( 'NONE',  ( 1.833027702892645406E-15, -6.429395695523604892E-17, 0.5250000000000000222 ) ) ;
#260 = FACE_OUTER_BOUND ( 'NONE', #222, .T. ) ;
#261 = DIRECTION ( 'NONE',  ( 0.0000000000000000000, 1.000000000000000000, 0.0000000000000000000 ) ) ;
#262 = CONICAL_SURFACE ( 'NONE', #126, 0.5999999999999986455, 0.7853981633974450594 ) ;
#263 = VERTEX_POINT ( 'NONE', #202 ) ;
#264 = ADVANCED_FACE ( 'NONE', ( #260 ), #191, .F. ) ;
#265 = PERSON_AND_ORGANIZATION ( #294, #82 ) ;
#266 = EDGE_LOOP ( 'NONE', ( #301 ) ) ;
#267 = PERSON_AND_ORGANIZATION ( #294, #82 ) ;
#268 = DESIGN_CONTEXT ( 'detailed design', #51, 'design' ) ;
#269 = AXIS2_PLACEMENT_3D ( 'NONE', #43, #276, #137 ) ;
#270 = CARTESIAN_POINT ( 'NONE',  ( 9.776147748760773395E-15, 0.3579999999999995963, 2.799999999999999822 ) ) ;
#271 = ORIENTED_EDGE ( 'NONE', *, *, #14, .T. ) ;
#272 = DATE_AND_TIME ( #220, #188 ) ;
#273 = DATE_AND_TIME ( #178, #295 ) ;
#274 = CARTESIAN_POINT ( 'NONE',  ( 1.824742037712254005E-14, -6.400333494247928583E-16, 5.226268911741809298 ) ) ;
#275 = LOCAL_TIME ( 11, 17, 53.00000000000000000, #153 ) ;
#276 = DIRECTION ( 'NONE',  ( -3.491481338843133355E-15, 1.224646799147353207E-16, -1.000000000000000000 ) ) ;
#277 = EDGE_LOOP ( 'NONE', ( #245 ) ) ;
#278 = EDGE_LOOP ( 'NONE', ( #271 ) ) ;
#279 = EDGE_LOOP ( 'NONE', ( #149 ) ) ;
#280 = CLOSED_SHELL ( 'NONE', ( #239, #249, #164, #38, #173 ) ) ;
#281 = CARTESIAN_POINT ( 'NONE',  ( 9.776147748760773395E-15, 2.684570010964719808E-33, 2.799999999999999822 ) ) ;
#282 = CARTESIAN_POINT ( 'NONE',  ( 9.776147748760773395E-15, 2.684570010964719808E-33, 2.799999999999999822 ) ) ;
#283 = DIRECTION ( 'NONE',  ( 0.0000000000000000000, 1.000000000000000000, 0.0000000000000000000 ) ) ;
#284 = APPROVAL_DATE_TIME ( #273, #180 ) ;
#285 = AXIS2_PLACEMENT_3D ( 'NONE', #281, #143, #241 ) ;
#286 = ADVANCED_FACE ( 'NONE', ( #72 ), #29, .F. ) ;
#287 = CARTESIAN_POINT ( 'NONE',  ( 1.042207179644675275E-13, -3.655570695454848748E-15, 29.84999999999999787 ) ) ;
#288 = VERTEX_POINT ( 'NONE', #162 ) ;
#289 = APPROVAL_DATE_TIME ( #195, #296 ) ;
#290 = EDGE_CURVE ( 'NONE', #263, #263, #182, .T. ) ;
#291 = ORIENTED_EDGE ( 'NONE', *, *, #151, .T. ) ;
#292 = APPLICATION_PROTOCOL_DEFINITION ( 'international standard', 'config_control_design', 1994, #185 ) ;
#293 = PERSON_AND_ORGANIZATION ( #294, #82 ) ;
#294 = PERSON ( 'UNSPECIFIED', 'UNSPECIFIED', 'UNSPECIFIED', ('UNSPECIFIED'), ('UNSPECIFIED'), ('UNSPECIFIED') ) ;
#295 = LOCAL_TIME ( 11, 17, 53.00000000000000000, #297 ) ;
#296 = APPROVAL ( #152, 'UNSPECIFIED' ) ;
#297 = COORDINATED_UNIVERSAL_TIME_OFFSET ( 1, 0, .AHEAD. ) ;
#298 = FACE_OUTER_BOUND ( 'NONE', #87, .T. ) ;
#299 = PRODUCT_RELATED_PRODUCT_CATEGORY ( 'detail', '', ( #148 ) ) ;
#300 = EDGE_LOOP ( 'NONE', ( #291 ) ) ;
#301 = ORIENTED_EDGE ( 'NONE', *, *, #129, .T. ) ;
#302 = FACE_OUTER_BOUND ( 'NONE', #175, .T. ) ;
#303 = EDGE_LOOP ( 'NONE', ( #110 ) ) ;
ENDSEC;
END-ISO-10303-21;
