ISO-10303-21;
HEADER;
FILE_DESCRIPTION (( 'STEP AP203' ),
    '1' );
FILE_NAME ('970899.step',
    '2021-12-17T10:17:52',
    ( '' ),
    ( '' ),
    'SwSTEP 2.0',
    'SolidWorks 2019',
    '' );
FILE_SCHEMA (( 'CONFIG_CONTROL_DESIGN' ));
ENDSEC;

DATA;
#1 = CONICAL_SURFACE ( 'NONE', #261, 0.7499999999999970024, 0.2617993877991358076 ) ;
#2 = FACE_OUTER_BOUND ( 'NONE', #152, .T. ) ;
#3 = FACE_OUTER_BOUND ( 'NONE', #131, .T. ) ;
#4 = DIRECTION ( 'NONE',  ( 4.275831445896958607E-31, 1.000000000000000000, 1.224646799147353207E-16 ) ) ;
#5 = DIRECTION ( 'NONE',  ( -3.491481338843133355E-15, 1.224646799147353207E-16, -1.000000000000000000 ) ) ;
#6 = CIRCLE ( 'NONE', #143, 0.3079999999999994409 ) ;
#7 = CC_DESIGN_APPROVAL ( #281, ( #50 ) ) ;
#8 = VERTEX_POINT ( 'NONE', #250 ) ;
#9 = PRODUCT_DEFINITION_SHAPE ( 'NONE', 'NONE',  #50 ) ;
#10 = CALENDAR_DATE ( 2021, 17, 12 ) ;
#11 = AXIS2_PLACEMENT_3D ( 'NONE', #111, #66, #141 ) ;
#12 = DATE_AND_TIME ( #234, #190 ) ;
#13 = PERSON_AND_ORGANIZATION_ROLE ( 'classification_officer' ) ;
#14 = PERSON_AND_ORGANIZATION_ROLE ( 'creator' ) ;
#15 = APPROVAL_STATUS ( 'not_yet_approved' ) ;
#16 = ORIENTED_EDGE ( 'NONE', *, *, #82, .T. ) ;
#17 = ORIENTED_EDGE ( 'NONE', *, *, #71, .T. ) ;
#18 = COORDINATED_UNIVERSAL_TIME_OFFSET ( 1, 0, .AHEAD. ) ;
#19 = EDGE_CURVE ( 'NONE', #8, #8, #269, .T. ) ;
#20 = ADVANCED_FACE ( 'NONE', ( #282, #2 ), #30, .T. ) ;
#21 = DIRECTION ( 'NONE',  ( -3.491481338843133355E-15, 1.224646799147353207E-16, -1.000000000000000000 ) ) ;
#22 = CYLINDRICAL_SURFACE ( 'NONE', #78, 0.3079999999999994964 ) ;
#23 = MANIFOLD_SOLID_BREP ( 'Corps-Déplacer/Copier1[1]', #170 ) ;
#24 = MANIFOLD_SOLID_BREP ( 'Corps-Déplacer/Copier1[2]', #37 ) ;
#25 = FACE_OUTER_BOUND ( 'NONE', #216, .T. ) ;
#26 = VERTEX_POINT ( 'NONE', #70 ) ;
#27 = AXIS2_PLACEMENT_3D ( 'NONE', #113, #202, #4 ) ;
#28 = DIRECTION ( 'NONE',  ( -4.689764474968930746E-31, -1.000000000000000000, -1.320051346370341645E-16 ) ) ;
#29 = CYLINDRICAL_SURFACE ( 'NONE', #274, 0.3079999999999993299 ) ;
#30 = CYLINDRICAL_SURFACE ( 'NONE', #63, 0.7499999999999977796 ) ;
#31 = VERTEX_POINT ( 'NONE', #182 ) ;
#32 = ADVANCED_FACE ( 'NONE', ( #156 ), #259, .F. ) ;
#33 = VERTEX_POINT ( 'NONE', #95 ) ;
#34 = FACE_OUTER_BOUND ( 'NONE', #140, .T. ) ;
#35 = APPLICATION_PROTOCOL_DEFINITION ( 'international standard', 'config_control_design', 1994, #244 ) ;
#36 = ADVANCED_FACE ( 'NONE', ( #178, #222 ), #128, .T. ) ;
#37 = CLOSED_SHELL ( 'NONE', ( #76, #115, #185, #218 ) ) ;
#38 = PERSON_AND_ORGANIZATION ( #205, #79 ) ;
#39 = CALENDAR_DATE ( 2021, 17, 12 ) ;
#40 = DATE_AND_TIME ( #97, #160 ) ;
#41 = ORIENTED_EDGE ( 'NONE', *, *, #98, .F. ) ;
#42 = DATE_AND_TIME ( #56, #207 ) ;
#43 = EDGE_LOOP ( 'NONE', ( #150 ) ) ;
#44 = DIRECTION ( 'NONE',  ( -3.491481338843133355E-15, 1.224646799147353207E-16, -1.000000000000000000 ) ) ;
#45 = FACE_OUTER_BOUND ( 'NONE', #90, .T. ) ;
#46 = CARTESIAN_POINT ( 'NONE',  ( 0.0000000000000000000, 0.0000000000000000000, 0.0000000000000000000 ) ) ;
#47 = DIRECTION ( 'NONE',  ( 0.0000000000000000000, 1.000000000000000000, 0.0000000000000000000 ) ) ;
#48 = PLANE ( 'NONE',  #27 ) ;
#49 = DIRECTION ( 'NONE',  ( -3.491481338843133355E-15, 1.224646799147353207E-16, -1.000000000000000000 ) ) ;
#50 = PRODUCT_DEFINITION ( 'UNKNOWN', '', #119, #144 ) ;
#51 = CARTESIAN_POINT ( 'NONE',  ( 0.0000000000000000000, 0.0000000000000000000, 0.0000000000000000000 ) ) ;
#52 = VERTEX_POINT ( 'NONE', #187 ) ;
#53 = VERTEX_POINT ( 'NONE', #162 ) ;
#54 = AXIS2_PLACEMENT_3D ( 'NONE', #180, #183, #60 ) ;
#55 = ADVANCED_FACE ( 'NONE', ( #265, #139 ), #1, .T. ) ;
#56 = CALENDAR_DATE ( 2021, 17, 12 ) ;
#57 = CIRCLE ( 'NONE', #186, 0.7499999999999984457 ) ;
#58 = EDGE_LOOP ( 'NONE', ( #172 ) ) ;
#59 = ORIENTED_EDGE ( 'NONE', *, *, #19, .F. ) ;
#60 = DIRECTION ( 'NONE',  ( -4.275831445896958607E-31, -1.000000000000000000, -1.224646799147353207E-16 ) ) ;
#61 = CC_DESIGN_APPROVAL ( #211, ( #119 ) ) ;
#62 = CARTESIAN_POINT ( 'NONE',  ( 8.379555213223518475E-15, -2.939152317953647106E-16, 2.399999999999999911 ) ) ;
#63 = AXIS2_PLACEMENT_3D ( 'NONE', #51, #44, #85 ) ;
#64 = DIRECTION ( 'NONE',  ( 0.0000000000000000000, -1.000000000000000000, 0.0000000000000000000 ) ) ;
#65 = DIRECTION ( 'NONE',  ( -3.491481338843133355E-15, 1.224646799147353207E-16, -1.000000000000000000 ) ) ;
#66 = DIRECTION ( 'NONE',  ( -3.491481338843133355E-15, 1.224646799147353207E-16, -1.000000000000000000 ) ) ;
#67 = APPROVAL ( #196, 'UNSPECIFIED' ) ;
#68 = CARTESIAN_POINT ( 'NONE',  ( 1.042207179644675275E-13, -3.655570695454848748E-15, 29.84999999999999787 ) ) ;
#69 = FACE_OUTER_BOUND ( 'NONE', #116, .T. ) ;
#70 = CARTESIAN_POINT ( 'NONE',  ( -1.182959891489475930E-31, 0.1250000000000000000, -3.388131789017201356E-17 ) ) ;
#71 = EDGE_CURVE ( 'NONE', #117, #117, #57, .T. ) ;
#72 = DIRECTION ( 'NONE',  ( -3.491481338843133355E-15, 1.224646799147353207E-16, -1.000000000000000000 ) ) ;
#73 = PLANE ( 'NONE',  #251 ) ;
#74 = AXIS2_PLACEMENT_3D ( 'NONE', #87, #221, #28 ) ;
#75 = COORDINATED_UNIVERSAL_TIME_OFFSET ( 1, 0, .AHEAD. ) ;
#76 = ADVANCED_FACE ( 'NONE', ( #110 ), #200, .F. ) ;
#77 = APPROVAL_ROLE ( '' ) ;
#78 = AXIS2_PLACEMENT_3D ( 'NONE', #46, #137, #245 ) ;
#79 = ORGANIZATION ( 'UNSPECIFIED', 'UNSPECIFIED', '' ) ;
#80 = EDGE_LOOP ( 'NONE', ( #133 ) ) ;
#81 = APPROVAL_PERSON_ORGANIZATION ( #252, #211, #77 ) ;
#82 = EDGE_CURVE ( 'NONE', #138, #138, #247, .T. ) ;
#83 = EDGE_LOOP ( 'NONE', ( #236 ) ) ;
#84 = DIRECTION ( 'NONE',  ( 3.491481338843133355E-15, -1.224646799147353207E-16, 1.000000000000000000 ) ) ;
#85 = DIRECTION ( 'NONE',  ( 4.275831445896958607E-31, 1.000000000000000000, 1.224646799147353207E-16 ) ) ;
#86 = CC_DESIGN_SECURITY_CLASSIFICATION ( #118, ( #119 ) ) ;
#87 = CARTESIAN_POINT ( 'NONE',  ( 3.688928074258524020E-16, -1.293901791244395598E-17, 0.1056550992617022733 ) ) ;
#88 = DIRECTION ( 'NONE',  ( 0.0000000000000000000, 1.000000000000000000, 0.0000000000000000000 ) ) ;
#89 = CARTESIAN_POINT ( 'NONE',  ( 1.047444401652940007E-13, 0.5999999999999949818, 30.00000000000000000 ) ) ;
#90 = EDGE_LOOP ( 'NONE', ( #16 ) ) ;
#91 = DIRECTION ( 'NONE',  ( -3.491481338843133355E-15, 1.224646799147353207E-16, -1.000000000000000000 ) ) ;
#92 =( LENGTH_UNIT ( ) NAMED_UNIT ( * ) SI_UNIT ( .MILLI., .METRE. ) );
#93 = AXIS2_PLACEMENT_3D ( 'NONE', #158, #228, #88 ) ;
#94 = DIRECTION ( 'NONE',  ( -4.275831445896958607E-31, -1.000000000000000000, -1.224646799147353207E-16 ) ) ;
#95 = CARTESIAN_POINT ( 'NONE',  ( 3.688928074258525499E-16, 0.3079999999999992188, 0.1056550992617023149 ) ) ;
#96 = PERSON_AND_ORGANIZATION_ROLE ( 'design_supplier' ) ;
#97 = CALENDAR_DATE ( 2021, 17, 12 ) ;
#98 = EDGE_CURVE ( 'NONE', #53, #53, #219, .T. ) ;
#99 = DATE_AND_TIME ( #10, #241 ) ;
#100 = EDGE_LOOP ( 'NONE', ( #278 ) ) ;
#101 = PRODUCT_RELATED_PRODUCT_CATEGORY ( 'detail', '', ( #166 ) ) ;
#102 = AXIS2_PLACEMENT_3D ( 'NONE', #262, #84, #181 ) ;
#103 = APPROVAL_DATE_TIME ( #12, #211 ) ;
#104 = EDGE_LOOP ( 'NONE', ( #213 ) ) ;
#105 = EDGE_LOOP ( 'NONE', ( #191 ) ) ;
#106 = ORIENTED_EDGE ( 'NONE', *, *, #225, .F. ) ;
#107 = CC_DESIGN_PERSON_AND_ORGANIZATION_ASSIGNMENT ( #123, #13, ( #118 ) ) ;
#108 = DIRECTION ( 'NONE',  ( 0.0000000000000000000, 1.000000000000000000, 0.0000000000000000000 ) ) ;
#109 = ORIENTED_EDGE ( 'NONE', *, *, #124, .F. ) ;
#110 = FACE_OUTER_BOUND ( 'NONE', #80, .T. ) ;
#111 = CARTESIAN_POINT ( 'NONE',  ( 1.228176774875460596E-14, -4.307864227728379453E-16, 3.517638090205014390 ) ) ;
#112 = AXIS2_PLACEMENT_3D ( 'NONE', #260, #283, #240 ) ;
#113 = CARTESIAN_POINT ( 'NONE',  ( 1.047444401652940007E-13, 4.499279347985507822E-33, 30.00000000000000000 ) ) ;
#114 = DIRECTION ( 'NONE',  ( 3.491481338843133355E-15, -1.224646799147353207E-16, 1.000000000000000000 ) ) ;
#115 = ADVANCED_FACE ( 'NONE', ( #263, #197 ), #239, .T. ) ;
#116 = EDGE_LOOP ( 'NONE', ( #109 ) ) ;
#117 = VERTEX_POINT ( 'NONE', #249 ) ;
#118 = SECURITY_CLASSIFICATION ( '', '', #273 ) ;
#119 = PRODUCT_DEFINITION_FORMATION_WITH_SPECIFIED_SOURCE ( 'ANY', '', #166, .NOT_KNOWN. ) ;
#120 = DIRECTION ( 'NONE',  ( 4.337473262060513559E-31, 1.000000000000000000, 1.224646799147353207E-16 ) ) ;
#121 = CC_DESIGN_DATE_AND_TIME_ASSIGNMENT ( #40, #126, ( #118 ) ) ;
#122 = AXIS2_PLACEMENT_3D ( 'NONE', #248, #147, #201 ) ;
#123 = PERSON_AND_ORGANIZATION ( #205, #79 ) ;
#124 = EDGE_CURVE ( 'NONE', #52, #52, #6, .T. ) ;
#125 = APPROVAL_STATUS ( 'not_yet_approved' ) ;
#126 = DATE_TIME_ROLE ( 'classification_date' ) ;
#127 = ORIENTED_EDGE ( 'NONE', *, *, #204, .F. ) ;
#128 = CONICAL_SURFACE ( 'NONE', #112, 0.5999999999999986455, 0.7853981633974450594 ) ;
#129 = APPROVAL_ROLE ( '' ) ;
#130 = APPROVAL_DATE_TIME ( #42, #67 ) ;
#131 = EDGE_LOOP ( 'NONE', ( #238 ) ) ;
#132 = ADVANCED_FACE ( 'NONE', ( #242, #45 ), #22, .T. ) ;
#133 = ORIENTED_EDGE ( 'NONE', *, *, #177, .T. ) ;
#134 = APPROVAL_PERSON_ORGANIZATION ( #167, #281, #169 ) ;
#135 = DIRECTION ( 'NONE',  ( 3.491481338843133355E-15, -1.224646799147353207E-16, 1.000000000000000000 ) ) ;
#136 = DIRECTION ( 'NONE',  ( -3.491481338843133355E-15, 1.224646799147353207E-16, -1.000000000000000000 ) ) ;
#137 = DIRECTION ( 'NONE',  ( -3.491481338843133355E-15, 1.224646799147353207E-16, -1.000000000000000000 ) ) ;
#138 = VERTEX_POINT ( 'NONE', #264 ) ;
#139 = FACE_OUTER_BOUND ( 'NONE', #104, .T. ) ;
#140 = EDGE_LOOP ( 'NONE', ( #106 ) ) ;
#141 = DIRECTION ( 'NONE',  ( 0.0000000000000000000, 1.000000000000000000, 0.0000000000000000000 ) ) ;
#142 = CARTESIAN_POINT ( 'NONE',  ( 8.379555213223518475E-15, 2.309630065299252327E-33, 2.399999999999999911 ) ) ;
#143 = AXIS2_PLACEMENT_3D ( 'NONE', #62, #136, #157 ) ;
#144 = DESIGN_CONTEXT ( 'detailed design', #244, 'design' ) ;
#145 = DIRECTION ( 'NONE',  ( 0.0000000000000000000, 0.0000000000000000000, 1.000000000000000000 ) ) ;
#146 = COORDINATED_UNIVERSAL_TIME_OFFSET ( 1, 0, .AHEAD. ) ;
#147 = DIRECTION ( 'NONE',  ( -3.491481338843133355E-15, 1.224646799147353207E-16, -1.000000000000000000 ) ) ;
#148 = MECHANICAL_CONTEXT ( 'NONE', #155, 'mechanical' ) ;
#149 = EDGE_LOOP ( 'NONE', ( #194 ) ) ;
#150 = ORIENTED_EDGE ( 'NONE', *, *, #177, .F. ) ;
#151 = CIRCLE ( 'NONE', #11, 0.3761483474218559331 ) ;
#152 = EDGE_LOOP ( 'NONE', ( #17 ) ) ;
#153 = CC_DESIGN_PERSON_AND_ORGANIZATION_ASSIGNMENT ( #254, #208, ( #50 ) ) ;
#154 = ADVANCED_BREP_SHAPE_REPRESENTATION ( '970899', ( #23, #24, #171 ), #257 ) ;
#155 = APPLICATION_CONTEXT ( 'configuration controlled 3d designs of mechanical parts and assemblies' ) ;
#156 = FACE_OUTER_BOUND ( 'NONE', #100, .T. ) ;
#157 = DIRECTION ( 'NONE',  ( 0.0000000000000000000, 1.000000000000000000, 0.0000000000000000000 ) ) ;
#158 = CARTESIAN_POINT ( 'NONE',  ( 1.715319899521319807E-14, -6.016532298461536195E-16, 4.912871452120301186 ) ) ;
#159 = DIRECTION ( 'NONE',  ( -3.491481338843133355E-15, 1.224646799147353207E-16, -1.000000000000000000 ) ) ;
#160 = LOCAL_TIME ( 11, 17, 52.00000000000000000, #75 ) ;
#161 = DIRECTION ( 'NONE',  ( 0.0000000000000000000, 1.000000000000000000, 0.0000000000000000000 ) ) ;
#162 = CARTESIAN_POINT ( 'NONE',  ( 8.379555213223518475E-15, 0.3079999999999992188, 2.399999999999999911 ) ) ;
#163 = CIRCLE ( 'NONE', #224, 0.3079999999999992188 ) ;
#164 = CC_DESIGN_PERSON_AND_ORGANIZATION_ASSIGNMENT ( #270, #96, ( #119 ) ) ;
#165 = CARTESIAN_POINT ( 'NONE',  ( 1.047444401652940007E-13, -3.673940397442059178E-15, 30.00000000000000000 ) ) ;
#166 = PRODUCT ( '970899', '970899', '', ( #148 ) ) ;
#167 = PERSON_AND_ORGANIZATION ( #205, #79 ) ;
#168 = ADVANCED_FACE ( 'NONE', ( #25 ), #48, .F. ) ;
#169 = APPROVAL_ROLE ( '' ) ;
#170 = CLOSED_SHELL ( 'NONE', ( #32, #132, #272, #55, #20, #36, #168 ) ) ;
#171 = AXIS2_PLACEMENT_3D ( 'NONE', #268, #145, #235 ) ;
#172 = ORIENTED_EDGE ( 'NONE', *, *, #71, .F. ) ;
#173 = CC_DESIGN_PERSON_AND_ORGANIZATION_ASSIGNMENT ( #212, #14, ( #119 ) ) ;
#174 = TOROIDAL_SURFACE ( 'NONE', #280, 2.307999999999999829, 2.000000000000000000 ) ;
#175 = EDGE_LOOP ( 'NONE', ( #59 ) ) ;
#176 = CARTESIAN_POINT ( 'NONE',  ( 1.047444401652940007E-14, -3.673940397442059868E-16, 3.000000000000000000 ) ) ;
#177 = EDGE_CURVE ( 'NONE', #26, #26, #210, .T. ) ;
#178 = FACE_OUTER_BOUND ( 'NONE', #58, .T. ) ;
#179 = AXIS2_PLACEMENT_3D ( 'NONE', #165, #72, #47 ) ;
#180 = CARTESIAN_POINT ( 'NONE',  ( 8.379555213223518475E-15, 2.309630065299252327E-33, 2.399999999999999911 ) ) ;
#181 = DIRECTION ( 'NONE',  ( -4.275831445896958607E-31, -1.000000000000000000, -1.224646799147353207E-16 ) ) ;
#182 = CARTESIAN_POINT ( 'NONE',  ( 1.228176774875460596E-14, 0.3761483474218554890, 3.517638090205014390 ) ) ;
#183 = DIRECTION ( 'NONE',  ( 3.491481338843133355E-15, -1.224646799147353207E-16, 1.000000000000000000 ) ) ;
#184 = DIRECTION ( 'NONE',  ( 4.689764474968930746E-31, 1.000000000000000000, 1.320051346370341645E-16 ) ) ;
#185 = ADVANCED_FACE ( 'NONE', ( #34, #223 ), #29, .T. ) ;
#186 = AXIS2_PLACEMENT_3D ( 'NONE', #68, #159, #161 ) ;
#187 = CARTESIAN_POINT ( 'NONE',  ( 8.379555213223518475E-15, 0.3079999999999992188, 2.399999999999999911 ) ) ;
#188 =( NAMED_UNIT ( * ) SI_UNIT ( $, .STERADIAN. ) SOLID_ANGLE_UNIT ( ) );
#189 = DATE_TIME_ROLE ( 'creation_date' ) ;
#190 = LOCAL_TIME ( 11, 17, 52.00000000000000000, #255 ) ;
#191 = ORIENTED_EDGE ( 'NONE', *, *, #204, .T. ) ;
#192 = CIRCLE ( 'NONE', #179, 0.5999999999999986455 ) ;
#193 = PERSON_AND_ORGANIZATION ( #205, #79 ) ;
#194 = ORIENTED_EDGE ( 'NONE', *, *, #124, .T. ) ;
#195 = EDGE_LOOP ( 'NONE', ( #217 ) ) ;
#196 = APPROVAL_STATUS ( 'not_yet_approved' ) ;
#197 = FACE_OUTER_BOUND ( 'NONE', #83, .T. ) ;
#198 = EDGE_LOOP ( 'NONE', ( #215 ) ) ;
#199 = AXIS2_PLACEMENT_3D ( 'NONE', #176, #65, #243 ) ;
#200 = PLANE ( 'NONE',  #102 ) ;
#201 = DIRECTION ( 'NONE',  ( 4.275831445896958607E-31, 1.000000000000000000, 1.224646799147353454E-16 ) ) ;
#202 = DIRECTION ( 'NONE',  ( -3.491481338843133355E-15, 1.224646799147353207E-16, -1.000000000000000000 ) ) ;
#203 = CARTESIAN_POINT ( 'NONE',  ( 3.688928074258524020E-16, -1.293901791244395598E-17, 0.1056550992617022733 ) ) ;
#204 = EDGE_CURVE ( 'NONE', #229, #229, #192, .T. ) ;
#205 = PERSON ( 'UNSPECIFIED', 'UNSPECIFIED', 'UNSPECIFIED', ('UNSPECIFIED'), ('UNSPECIFIED'), ('UNSPECIFIED') ) ;
#206 = CARTESIAN_POINT ( 'NONE',  ( 0.0000000000000000000, 0.0000000000000000000, 0.0000000000000000000 ) ) ;
#207 = LOCAL_TIME ( 11, 17, 52.00000000000000000, #18 ) ;
#208 = PERSON_AND_ORGANIZATION_ROLE ( 'creator' ) ;
#209 = PERSON_AND_ORGANIZATION_ROLE ( 'design_owner' ) ;
#210 = CIRCLE ( 'NONE', #122, 0.1250000000000000000 ) ;
#211 = APPROVAL ( #125, 'UNSPECIFIED' ) ;
#212 = PERSON_AND_ORGANIZATION ( #205, #79 ) ;
#213 = ORIENTED_EDGE ( 'NONE', *, *, #19, .T. ) ;
#214 = APPROVAL_PERSON_ORGANIZATION ( #193, #67, #129 ) ;
#215 = ORIENTED_EDGE ( 'NONE', *, *, #230, .F. ) ;
#216 = EDGE_LOOP ( 'NONE', ( #127 ) ) ;
#217 = ORIENTED_EDGE ( 'NONE', *, *, #230, .T. ) ;
#218 = ADVANCED_FACE ( 'NONE', ( #69 ), #73, .T. ) ;
#219 = CIRCLE ( 'NONE', #256, 0.3079999999999994409 ) ;
#220 = CARTESIAN_POINT ( 'NONE',  ( 1.715319899521319807E-14, -6.016532298461536195E-16, 4.912871452120301186 ) ) ;
#221 = DIRECTION ( 'NONE',  ( 3.491481338843133355E-15, -1.224646799147353207E-16, 1.000000000000000000 ) ) ;
#222 = FACE_BOUND ( 'NONE', #105, .T. ) ;
#223 = FACE_OUTER_BOUND ( 'NONE', #149, .T. ) ;
#224 = AXIS2_PLACEMENT_3D ( 'NONE', #203, #5, #184 ) ;
#225 = EDGE_CURVE ( 'NONE', #33, #33, #163, .T. ) ;
#226 = CARTESIAN_POINT ( 'NONE',  ( 8.379555213223518475E-15, -2.939152317953647106E-16, 2.399999999999999911 ) ) ;
#227 = CARTESIAN_POINT ( 'NONE',  ( 1.047444401652939849E-14, -4.336808689942017736E-16, 2.999999999999999556 ) ) ;
#228 = DIRECTION ( 'NONE',  ( -3.491481338843133355E-15, 1.224646799147353207E-16, -1.000000000000000000 ) ) ;
#229 = VERTEX_POINT ( 'NONE', #89 ) ;
#230 = EDGE_CURVE ( 'NONE', #31, #31, #151, .T. ) ;
#231 = DIRECTION ( 'NONE',  ( 4.275831445896958607E-31, 1.000000000000000000, 1.224646799147353207E-16 ) ) ;
#232 = CC_DESIGN_APPROVAL ( #67, ( #118 ) ) ;
#233 = CC_DESIGN_DATE_AND_TIME_ASSIGNMENT ( #99, #189, ( #50 ) ) ;
#234 = CALENDAR_DATE ( 2021, 17, 12 ) ;
#235 = DIRECTION ( 'NONE',  ( 1.000000000000000000, 0.0000000000000000000, 0.0000000000000000000 ) ) ;
#236 = ORIENTED_EDGE ( 'NONE', *, *, #225, .T. ) ;
#237 = COORDINATED_UNIVERSAL_TIME_OFFSET ( 1, 0, .AHEAD. ) ;
#238 = ORIENTED_EDGE ( 'NONE', *, *, #82, .F. ) ;
#239 = CONICAL_SURFACE ( 'NONE', #74, 0.3079999999999992188, 1.047197551196592524 ) ;
#240 = DIRECTION ( 'NONE',  ( 0.0000000000000000000, 1.000000000000000000, 0.0000000000000000000 ) ) ;
#241 = LOCAL_TIME ( 11, 17, 52.00000000000000000, #146 ) ;
#242 = FACE_OUTER_BOUND ( 'NONE', #275, .T. ) ;
#243 = DIRECTION ( 'NONE',  ( 0.0000000000000000000, 1.000000000000000000, 0.0000000000000000000 ) ) ;
#244 = APPLICATION_CONTEXT ( 'configuration controlled 3d designs of mechanical parts and assemblies' ) ;
#245 = DIRECTION ( 'NONE',  ( 4.275831445896959482E-31, 1.000000000000000000, 1.224646799147353207E-16 ) ) ;
#246 =( NAMED_UNIT ( * ) PLANE_ANGLE_UNIT ( ) SI_UNIT ( $, .RADIAN. ) );
#247 = CIRCLE ( 'NONE', #199, 0.3079999999999995519 ) ;
#248 = CARTESIAN_POINT ( 'NONE',  ( -1.717438822226595756E-31, 6.023964478836633404E-33, -4.918940287951393173E-17 ) ) ;
#249 = CARTESIAN_POINT ( 'NONE',  ( 1.042207179644675275E-13, 0.7499999999999947820, 29.84999999999999787 ) ) ;
#250 = CARTESIAN_POINT ( 'NONE',  ( 1.715319899521319807E-14, 0.7499999999999963363, 4.912871452120301186 ) ) ;
#251 = AXIS2_PLACEMENT_3D ( 'NONE', #142, #114, #94 ) ;
#252 = PERSON_AND_ORGANIZATION ( #205, #79 ) ;
#253 = UNCERTAINTY_MEASURE_WITH_UNIT (LENGTH_MEASURE( 1.000000000000000082E-05 ), #92, 'distance_accuracy_value', 'NONE');
#254 = PERSON_AND_ORGANIZATION ( #205, #79 ) ;
#255 = COORDINATED_UNIVERSAL_TIME_OFFSET ( 1, 0, .AHEAD. ) ;
#256 = AXIS2_PLACEMENT_3D ( 'NONE', #226, #21, #108 ) ;
#257 =( GEOMETRIC_REPRESENTATION_CONTEXT ( 3 ) GLOBAL_UNCERTAINTY_ASSIGNED_CONTEXT ( ( #253 ) ) GLOBAL_UNIT_ASSIGNED_CONTEXT ( ( #92, #246, #188 ) ) REPRESENTATION_CONTEXT ( 'NONE', 'WORKASPACE' ) );
#258 = APPROVAL_DATE_TIME ( #277, #281 ) ;
#259 = PLANE ( 'NONE',  #54 ) ;
#260 = CARTESIAN_POINT ( 'NONE',  ( 1.047444401652940007E-13, -3.673940397442059178E-15, 30.00000000000000000 ) ) ;
#261 = AXIS2_PLACEMENT_3D ( 'NONE', #220, #135, #64 ) ;
#262 = CARTESIAN_POINT ( 'NONE',  ( -8.587194111132978778E-32, 3.011982239418316702E-33, -2.459470143975696587E-17 ) ) ;
#263 = FACE_BOUND ( 'NONE', #43, .T. ) ;
#264 = CARTESIAN_POINT ( 'NONE',  ( 1.047444401652940007E-14, 0.3079999999999992188, 3.000000000000000000 ) ) ;
#265 = FACE_BOUND ( 'NONE', #198, .T. ) ;
#266 = FACE_OUTER_BOUND ( 'NONE', #195, .T. ) ;
#267 = APPLICATION_PROTOCOL_DEFINITION ( 'international standard', 'config_control_design', 1994, #155 ) ;
#268 = CARTESIAN_POINT ( 'NONE',  ( 0.0000000000000000000, 0.0000000000000000000, 0.0000000000000000000 ) ) ;
#269 = CIRCLE ( 'NONE', #93, 0.7499999999999970024 ) ;
#270 = PERSON_AND_ORGANIZATION ( #205, #79 ) ;
#271 = CC_DESIGN_PERSON_AND_ORGANIZATION_ASSIGNMENT ( #38, #209, ( #166 ) ) ;
#272 = ADVANCED_FACE ( 'NONE', ( #3, #266 ), #174, .F. ) ;
#273 = SECURITY_CLASSIFICATION_LEVEL ( 'unclassified' ) ;
#274 = AXIS2_PLACEMENT_3D ( 'NONE', #206, #91, #231 ) ;
#275 = EDGE_LOOP ( 'NONE', ( #41 ) ) ;
#276 = LOCAL_TIME ( 11, 17, 52.00000000000000000, #237 ) ;
#277 = DATE_AND_TIME ( #39, #276 ) ;
#278 = ORIENTED_EDGE ( 'NONE', *, *, #98, .T. ) ;
#279 = SHAPE_DEFINITION_REPRESENTATION ( #9, #154 ) ;
#280 = AXIS2_PLACEMENT_3D ( 'NONE', #227, #49, #120 ) ;
#281 = APPROVAL ( #15, 'UNSPECIFIED' ) ;
#282 = FACE_OUTER_BOUND ( 'NONE', #175, .T. ) ;
#283 = DIRECTION ( 'NONE',  ( -3.491481338843133355E-15, 1.224646799147353207E-16, -1.000000000000000000 ) ) ;
ENDSEC;
END-ISO-10303-21;
