ISO-10303-21;
HEADER;
FILE_DESCRIPTION (( 'STEP AP203' ),
    '1' );
FILE_NAME ('970179.step',
    '2024-07-12T09:23:09',
    ( '' ),
    ( '' ),
    'SwSTEP 2.0',
    'SolidWorks 2022',
    '' );
FILE_SCHEMA (( 'CONFIG_CONTROL_DESIGN' ));
ENDSEC;

DATA;
#1 = COORDINATED_UNIVERSAL_TIME_OFFSET ( 1, 0, .AHEAD. ) ;
#2 = CARTESIAN_POINT ( 'NONE',  ( 8.728703347107833388E-14, 1.799999999999996936, 25.00000000000000000 ) ) ;
#3 = CARTESIAN_POINT ( 'NONE',  ( 2.269462870248036681E-14, 1.499759782661856239E-32, 6.500000000000000000 ) ) ;
#4 = DIRECTION ( 'NONE',  ( 0.000000000000000000, 0.000000000000000000, 1.000000000000000000 ) ) ;
#5 = AXIS2_PLACEMENT_3D ( 'NONE', #106, #31, #170 ) ;
#6 = CARTESIAN_POINT ( 'NONE',  ( 0.000000000000000000, 0.000000000000000000, 0.000000000000000000 ) ) ;
#7 = PERSON_AND_ORGANIZATION ( #228, #191 ) ;
#8 = PERSON_AND_ORGANIZATION ( #228, #191 ) ;
#9 = FACE_OUTER_BOUND ( 'NONE', #185, .T. ) ;
#10 = APPROVAL_STATUS ( 'not_yet_approved' ) ;
#11 = LOCAL_TIME ( 11, 23, 9.000000000000000000, #158 ) ;
#12 = LOCAL_TIME ( 11, 23, 9.000000000000000000, #28 ) ;
#13 = APPROVAL_STATUS ( 'not_yet_approved' ) ;
#14 = DIRECTION ( 'NONE',  ( -3.491481338843133355E-15, 1.224646799147353207E-16, -1.000000000000000000 ) ) ;
#15 = APPROVAL_PERSON_ORGANIZATION ( #45, #189, #144 ) ;
#16 = APPROVAL ( #21, 'UNSPECIFIED' ) ;
#17 = DIRECTION ( 'NONE',  ( 0.000000000000000000, 1.000000000000000000, 0.000000000000000000 ) ) ;
#18 = AXIS2_PLACEMENT_3D ( 'NONE', #63, #143, #124 ) ;
#19 = DIRECTION ( 'NONE',  ( -3.491481338843133355E-15, 1.224646799147353207E-16, -1.000000000000000000 ) ) ;
#20 = FACE_OUTER_BOUND ( 'NONE', #129, .T. ) ;
#21 = APPROVAL_STATUS ( 'not_yet_approved' ) ;
#22 = AXIS2_PLACEMENT_3D ( 'NONE', #193, #19, #92 ) ;
#23 = FACE_OUTER_BOUND ( 'NONE', #69, .T. ) ;
#24 = VERTEX_POINT ( 'NONE', #75 ) ;
#25 = DIRECTION ( 'NONE',  ( -3.491481338843133355E-15, 1.224646799147353207E-16, -1.000000000000000000 ) ) ;
#26 = DATE_AND_TIME ( #198, #89 ) ;
#27 = ORIENTED_EDGE ( 'NONE', *, *, #138, .F. ) ;
#28 = COORDINATED_UNIVERSAL_TIME_OFFSET ( 1, 0, .AHEAD. ) ;
#29 = CIRCLE ( 'NONE', #123, 1.799999999999999156 ) ;
#30 = LOCAL_TIME ( 11, 23, 9.000000000000000000, #1 ) ;
#31 = DIRECTION ( 'NONE',  ( -3.491481338843133355E-15, 1.224646799147353207E-16, -1.000000000000000000 ) ) ;
#32 = ADVANCED_FACE ( 'NONE', ( #211, #20 ), #76, .T. ) ;
#33 = CARTESIAN_POINT ( 'NONE',  ( 2.269462870248036681E-14, 1.349783804395670205E-32, 6.500000000000000000 ) ) ;
#34 = ORIENTED_EDGE ( 'NONE', *, *, #41, .F. ) ;
#35 = ORIENTED_EDGE ( 'NONE', *, *, #55, .F. ) ;
#36 = DIRECTION ( 'NONE',  ( -3.491481338843133355E-15, 1.224646799147353207E-16, -1.000000000000000000 ) ) ;
#37 = VERTEX_POINT ( 'NONE', #181 ) ;
#38 = APPLICATION_PROTOCOL_DEFINITION ( 'international standard', 'config_control_design', 1994, #59 ) ;
#39 = PRODUCT ( '970179', '970179', '', ( #77 ) ) ;
#40 = DIRECTION ( 'NONE',  ( 3.491481338843133355E-15, -1.224646799147353207E-16, 1.000000000000000000 ) ) ;
#41 = EDGE_CURVE ( 'NONE', #148, #148, #66, .T. ) ;
#42 = APPLICATION_CONTEXT ( 'configuration controlled 3d designs of mechanical parts and assemblies' ) ;
#43 = DIRECTION ( 'NONE',  ( 0.000000000000000000, 1.000000000000000000, 0.000000000000000000 ) ) ;
#44 = CC_DESIGN_PERSON_AND_ORGANIZATION_ASSIGNMENT ( #134, #184, ( #39 ) ) ;
#45 = PERSON_AND_ORGANIZATION ( #228, #191 ) ;
#46 = PERSON_AND_ORGANIZATION ( #228, #191 ) ;
#47 = DIRECTION ( 'NONE',  ( 3.491481338843133355E-15, -1.224646799147353207E-16, 1.000000000000000000 ) ) ;
#48 = PERSON_AND_ORGANIZATION_ROLE ( 'classification_officer' ) ;
#49 = CIRCLE ( 'NONE', #22, 3.000000000000003997 ) ;
#50 = DIRECTION ( 'NONE',  ( -3.491481338843133355E-15, 1.224646799147353207E-16, -1.000000000000000000 ) ) ;
#51 = CIRCLE ( 'NONE', #5, 1.800000000000000044 ) ;
#52 = ORIENTED_EDGE ( 'NONE', *, *, #222, .T. ) ;
#53 = MANIFOLD_SOLID_BREP ( 'Corps-Déplacer/Copier1[1]', #74 ) ;
#54 = CC_DESIGN_DATE_AND_TIME_ASSIGNMENT ( #26, #64, ( #105 ) ) ;
#55 = EDGE_CURVE ( 'NONE', #57, #57, #49, .T. ) ;
#56 = AXIS2_PLACEMENT_3D ( 'NONE', #238, #166, #43 ) ;
#57 = VERTEX_POINT ( 'NONE', #237 ) ;
#58 = DIRECTION ( 'NONE',  ( -3.491481338843133355E-15, 1.224646799147353207E-16, -1.000000000000000000 ) ) ;
#59 = APPLICATION_CONTEXT ( 'configuration controlled 3d designs of mechanical parts and assemblies' ) ;
#60 = DIRECTION ( 'NONE',  ( 0.000000000000000000, 1.000000000000000000, 0.000000000000000000 ) ) ;
#61 = CALENDAR_DATE ( 2024, 12, 7 ) ;
#62 = CARTESIAN_POINT ( 'NONE',  ( 8.728703347107833388E-14, -3.061616997868383043E-15, 25.00000000000000000 ) ) ;
#63 = CARTESIAN_POINT ( 'NONE',  ( 0.000000000000000000, 0.000000000000000000, 0.000000000000000000 ) ) ;
#64 = DATE_TIME_ROLE ( 'classification_date' ) ;
#65 = ADVANCED_FACE ( 'NONE', ( #117 ), #177, .T. ) ;
#66 = CIRCLE ( 'NONE', #139, 2.000000000000000000 ) ;
#67 = FACE_OUTER_BOUND ( 'NONE', #197, .T. ) ;
#68 = DIRECTION ( 'NONE',  ( -3.491481338843133355E-15, 1.224646799147353207E-16, -1.000000000000000000 ) ) ;
#69 = EDGE_LOOP ( 'NONE', ( #190 ) ) ;
#70 = EDGE_LOOP ( 'NONE', ( #224 ) ) ;
#71 = EDGE_CURVE ( 'NONE', #110, #110, #29, .T. ) ;
#72 = DATE_AND_TIME ( #154, #30 ) ;
#73 = CARTESIAN_POINT ( 'NONE',  ( 0.000000000000000000, 0.000000000000000000, 0.000000000000000000 ) ) ;
#74 = CLOSED_SHELL ( 'NONE', ( #194, #128, #161, #32, #201, #187 ) ) ;
#75 = CARTESIAN_POINT ( 'NONE',  ( 9.147681107769013177E-14, 2.999999999999991118, 26.20000000000000639 ) ) ;
#76 = CYLINDRICAL_SURFACE ( 'NONE', #126, 2.999999999999999112 ) ;
#77 = MECHANICAL_CONTEXT ( 'NONE', #42, 'mechanical' ) ;
#78 = DIRECTION ( 'NONE',  ( -3.491481338843133355E-15, 1.224646799147353207E-16, -1.000000000000000000 ) ) ;
#79 = AXIS2_PLACEMENT_3D ( 'NONE', #206, #68, #87 ) ;
#80 = DIRECTION ( 'NONE',  ( 4.275831445896958607E-31, 1.000000000000000000, 1.224646799147353207E-16 ) ) ;
#81 = CYLINDRICAL_SURFACE ( 'NONE', #18, 2.000000000000000000 ) ;
#82 = APPROVAL_ROLE ( '' ) ;
#83 = AXIS2_PLACEMENT_3D ( 'NONE', #176, #4, #160 ) ;
#84 = DIRECTION ( 'NONE',  ( 4.275831445896958607E-31, 1.000000000000000000, 1.224646799147353207E-16 ) ) ;
#85 = CARTESIAN_POINT ( 'NONE',  ( 2.269462870248036681E-14, 1.999999999999999112, 6.500000000000000000 ) ) ;
#86 = CC_DESIGN_PERSON_AND_ORGANIZATION_ASSIGNMENT ( #46, #48, ( #105 ) ) ;
#87 = DIRECTION ( 'NONE',  ( 4.275831445896958607E-31, 1.000000000000000000, 1.224646799147353207E-16 ) ) ;
#88 = AXIS2_PLACEMENT_3D ( 'NONE', #6, #78, #159 ) ;
#89 = LOCAL_TIME ( 11, 23, 9.000000000000000000, #100 ) ;
#90 = ORIENTED_EDGE ( 'NONE', *, *, #230, .T. ) ;
#91 = CARTESIAN_POINT ( 'NONE',  ( 1.710569414459005214E-46, 2.000000000000000000, 0.000000000000000000 ) ) ;
#92 = DIRECTION ( 'NONE',  ( 0.000000000000000000, 1.000000000000000000, 0.000000000000000000 ) ) ;
#93 = CARTESIAN_POINT ( 'NONE',  ( 2.618611004132350143E-13, -9.184850993605148733E-15, 75.00000000000000000 ) ) ;
#94 =( NAMED_UNIT ( * ) SI_UNIT ( $, .STERADIAN. ) SOLID_ANGLE_UNIT ( ) );
#95 = DIRECTION ( 'NONE',  ( 0.000000000000000000, 1.000000000000000000, 0.000000000000000000 ) ) ;
#96 = APPROVAL_DATE_TIME ( #221, #155 ) ;
#97 = CC_DESIGN_APPROVAL ( #155, ( #105 ) ) ;
#98 = FACE_OUTER_BOUND ( 'NONE', #243, .T. ) ;
#99 = PRODUCT_DEFINITION ( 'UNKNOWN', '', #171, #178 ) ;
#100 = COORDINATED_UNIVERSAL_TIME_OFFSET ( 1, 0, .AHEAD. ) ;
#101 = CONICAL_SURFACE ( 'NONE', #229, 1.800000000000000044, 0.7853981633974430610 ) ;
#102 = PRODUCT_RELATED_PRODUCT_CATEGORY ( 'detail', '', ( #39 ) ) ;
#103 = CARTESIAN_POINT ( 'NONE',  ( -8.551662891793915461E-31, 2.999519565323715216E-32, -2.449293598294706414E-16 ) ) ;
#104 = AXIS2_PLACEMENT_3D ( 'NONE', #146, #50, #203 ) ;
#105 = SECURITY_CLASSIFICATION ( '', '', #219 ) ;
#106 = CARTESIAN_POINT ( 'NONE',  ( 8.728703347107833388E-14, -3.061616997868383043E-15, 25.00000000000000000 ) ) ;
#107 = ORIENTED_EDGE ( 'NONE', *, *, #230, .F. ) ;
#108 = FACE_OUTER_BOUND ( 'NONE', #215, .T. ) ;
#109 = ORIENTED_EDGE ( 'NONE', *, *, #55, .T. ) ;
#110 = VERTEX_POINT ( 'NONE', #174 ) ;
#111 =( LENGTH_UNIT ( ) NAMED_UNIT ( * ) SI_UNIT ( .MILLI., .METRE. ) );
#112 = EDGE_LOOP ( 'NONE', ( #132 ) ) ;
#113 = PERSON_AND_ORGANIZATION ( #228, #191 ) ;
#114 = CARTESIAN_POINT ( 'NONE',  ( 2.269462870248036681E-14, -7.960204194457795477E-16, 6.500000000000000000 ) ) ;
#115 = APPROVAL_PERSON_ORGANIZATION ( #113, #16, #118 ) ;
#116 =( NAMED_UNIT ( * ) PLANE_ANGLE_UNIT ( ) SI_UNIT ( $, .RADIAN. ) );
#117 = FACE_OUTER_BOUND ( 'NONE', #147, .T. ) ;
#118 = APPROVAL_ROLE ( '' ) ;
#119 = DATE_AND_TIME ( #188, #210 ) ;
#120 = CIRCLE ( 'NONE', #239, 2.500000000000003997 ) ;
#121 = EDGE_CURVE ( 'NONE', #37, #37, #120, .T. ) ;
#122 = PLANE ( 'NONE',  #79 ) ;
#123 = AXIS2_PLACEMENT_3D ( 'NONE', #156, #58, #236 ) ;
#124 = DIRECTION ( 'NONE',  ( 4.275831445896958607E-31, 1.000000000000000000, 1.224646799147353207E-16 ) ) ;
#125 = CC_DESIGN_DATE_AND_TIME_ASSIGNMENT ( #72, #232, ( #99 ) ) ;
#126 = AXIS2_PLACEMENT_3D ( 'NONE', #73, #25, #80 ) ;
#127 = FACE_BOUND ( 'NONE', #112, .T. ) ;
#128 = ADVANCED_FACE ( 'NONE', ( #195, #23 ), #182, .T. ) ;
#129 = EDGE_LOOP ( 'NONE', ( #109 ) ) ;
#130 = DIRECTION ( 'NONE',  ( 3.491481338843133355E-15, -1.224646799147353207E-16, 1.000000000000000000 ) ) ;
#131 = AXIS2_PLACEMENT_3D ( 'NONE', #207, #208, #17 ) ;
#132 = ORIENTED_EDGE ( 'NONE', *, *, #121, .T. ) ;
#133 = MANIFOLD_SOLID_BREP ( 'Corps-Déplacer/Copier1[2]', #213 ) ;
#134 = PERSON_AND_ORGANIZATION ( #228, #191 ) ;
#135 = DATE_AND_TIME ( #61, #11 ) ;
#136 = CC_DESIGN_PERSON_AND_ORGANIZATION_ASSIGNMENT ( #240, #167, ( #171 ) ) ;
#137 = DIRECTION ( 'NONE',  ( -4.275831445896958607E-31, -1.000000000000000000, -1.224646799147353207E-16 ) ) ;
#138 = EDGE_CURVE ( 'NONE', #24, #24, #209, .T. ) ;
#139 = AXIS2_PLACEMENT_3D ( 'NONE', #114, #36, #95 ) ;
#140 = PERSON_AND_ORGANIZATION_ROLE ( 'creator' ) ;
#141 = AXIS2_PLACEMENT_3D ( 'NONE', #103, #14, #84 ) ;
#142 = CALENDAR_DATE ( 2024, 12, 7 ) ;
#143 = DIRECTION ( 'NONE',  ( -3.491481338843133355E-15, 1.224646799147353207E-16, -1.000000000000000000 ) ) ;
#144 = APPROVAL_ROLE ( '' ) ;
#145 = ORIENTED_EDGE ( 'NONE', *, *, #41, .T. ) ;
#146 = CARTESIAN_POINT ( 'NONE',  ( -4.275831445896957731E-31, 1.499759782661857608E-32, -1.224646799147353207E-16 ) ) ;
#147 = EDGE_LOOP ( 'NONE', ( #34 ) ) ;
#148 = VERTEX_POINT ( 'NONE', #85 ) ;
#149 = PLANE ( 'NONE',  #218 ) ;
#150 = ADVANCED_FACE ( 'NONE', ( #98, #9 ), #81, .T. ) ;
#151 = CC_DESIGN_APPROVAL ( #16, ( #99 ) ) ;
#152 = FACE_OUTER_BOUND ( 'NONE', #231, .T. ) ;
#153 = EDGE_LOOP ( 'NONE', ( #52 ) ) ;
#154 = CALENDAR_DATE ( 2024, 12, 7 ) ;
#155 = APPROVAL ( #10, 'UNSPECIFIED' ) ;
#156 = CARTESIAN_POINT ( 'NONE',  ( 2.269462870248036681E-14, -7.960204194457795477E-16, 6.500000000000000000 ) ) ;
#157 = APPLICATION_PROTOCOL_DEFINITION ( 'international standard', 'config_control_design', 1994, #42 ) ;
#158 = COORDINATED_UNIVERSAL_TIME_OFFSET ( 1, 0, .AHEAD. ) ;
#159 = DIRECTION ( 'NONE',  ( 4.275831445896958607E-31, 1.000000000000000000, 1.224646799147353207E-16 ) ) ;
#160 = DIRECTION ( 'NONE',  ( 1.000000000000000000, 0.000000000000000000, 0.000000000000000000 ) ) ;
#161 = ADVANCED_FACE ( 'NONE', ( #223, #202 ), #101, .T. ) ;
#162 = CIRCLE ( 'NONE', #141, 2.000000000000000000 ) ;
#163 = CC_DESIGN_SECURITY_CLASSIFICATION ( #105, ( #171 ) ) ;
#164 = PRODUCT_DEFINITION_SHAPE ( 'NONE', 'NONE',  #99 ) ;
#165 = APPROVAL_DATE_TIME ( #119, #189 ) ;
#166 = DIRECTION ( 'NONE',  ( -3.491481338843133355E-15, 1.224646799147353207E-16, -1.000000000000000000 ) ) ;
#167 = PERSON_AND_ORGANIZATION_ROLE ( 'creator' ) ;
#168 = PLANE ( 'NONE',  #104 ) ;
#169 = AXIS2_PLACEMENT_3D ( 'NONE', #3, #40, #137 ) ;
#170 = DIRECTION ( 'NONE',  ( 0.000000000000000000, 1.000000000000000000, 0.000000000000000000 ) ) ;
#171 = PRODUCT_DEFINITION_FORMATION_WITH_SPECIFIED_SOURCE ( 'ANY', '', #39, .NOT_KNOWN. ) ;
#172 = ORIENTED_EDGE ( 'NONE', *, *, #121, .F. ) ;
#173 = UNCERTAINTY_MEASURE_WITH_UNIT (LENGTH_MEASURE( 1.000000000000000082E-05 ), #111, 'distance_accuracy_value', 'NONE');
#174 = CARTESIAN_POINT ( 'NONE',  ( 2.269462870248036681E-14, 1.799999999999998268, 6.500000000000000000 ) ) ;
#175 = EDGE_LOOP ( 'NONE', ( #204 ) ) ;
#176 = CARTESIAN_POINT ( 'NONE',  ( 0.000000000000000000, 0.000000000000000000, 0.000000000000000000 ) ) ;
#177 = PLANE ( 'NONE',  #169 ) ;
#178 = DESIGN_CONTEXT ( 'detailed design', #59, 'design' ) ;
#179 = DIRECTION ( 'NONE',  ( -3.491481338843133355E-15, 1.224646799147353207E-16, -1.000000000000000000 ) ) ;
#180 = CC_DESIGN_APPROVAL ( #189, ( #171 ) ) ;
#181 = CARTESIAN_POINT ( 'NONE',  ( 2.618611004132350143E-13, 2.499999999999994671, 75.00000000000000000 ) ) ;
#182 = CYLINDRICAL_SURFACE ( 'NONE', #88, 1.799999999999999600 ) ;
#183 = ADVANCED_BREP_SHAPE_REPRESENTATION ( '970179', ( #53, #133, #83 ), #234 ) ;
#184 = PERSON_AND_ORGANIZATION_ROLE ( 'design_owner' ) ;
#185 = EDGE_LOOP ( 'NONE', ( #107 ) ) ;
#186 = COORDINATED_UNIVERSAL_TIME_OFFSET ( 1, 0, .AHEAD. ) ;
#187 = ADVANCED_FACE ( 'NONE', ( #241 ), #122, .F. ) ;
#188 = CALENDAR_DATE ( 2024, 12, 7 ) ;
#189 = APPROVAL ( #13, 'UNSPECIFIED' ) ;
#190 = ORIENTED_EDGE ( 'NONE', *, *, #71, .F. ) ;
#191 = ORGANIZATION ( 'UNSPECIFIED', 'UNSPECIFIED', '' ) ;
#192 = EDGE_LOOP ( 'NONE', ( #172 ) ) ;
#193 = CARTESIAN_POINT ( 'NONE',  ( 2.601153597438134034E-13, -9.123618653647781159E-15, 74.50000000000000000 ) ) ;
#194 = ADVANCED_FACE ( 'NONE', ( #152 ), #149, .F. ) ;
#195 = FACE_OUTER_BOUND ( 'NONE', #153, .T. ) ;
#196 = APPROVAL_DATE_TIME ( #135, #16 ) ;
#197 = EDGE_LOOP ( 'NONE', ( #35 ) ) ;
#198 = CALENDAR_DATE ( 2024, 12, 7 ) ;
#199 = EDGE_LOOP ( 'NONE', ( #27 ) ) ;
#200 = CC_DESIGN_PERSON_AND_ORGANIZATION_ASSIGNMENT ( #7, #140, ( #99 ) ) ;
#201 = ADVANCED_FACE ( 'NONE', ( #67, #127 ), #242, .T. ) ;
#202 = FACE_BOUND ( 'NONE', #70, .T. ) ;
#203 = DIRECTION ( 'NONE',  ( 4.275831445896958607E-31, 1.000000000000000000, 1.224646799147353207E-16 ) ) ;
#204 = ORIENTED_EDGE ( 'NONE', *, *, #138, .T. ) ;
#205 = SHAPE_DEFINITION_REPRESENTATION ( #164, #183 ) ;
#206 = CARTESIAN_POINT ( 'NONE',  ( 2.618611004132350143E-13, 1.874699728327311336E-32, 75.00000000000000000 ) ) ;
#207 = CARTESIAN_POINT ( 'NONE',  ( 2.618611004132350143E-13, -9.184850993605148733E-15, 75.00000000000000000 ) ) ;
#208 = DIRECTION ( 'NONE',  ( -3.491481338843133355E-15, 1.224646799147353207E-16, -1.000000000000000000 ) ) ;
#209 = CIRCLE ( 'NONE', #56, 2.999999999999993783 ) ;
#210 = LOCAL_TIME ( 11, 23, 9.000000000000000000, #186 ) ;
#211 = FACE_OUTER_BOUND ( 'NONE', #199, .T. ) ;
#212 = ADVANCED_FACE ( 'NONE', ( #108 ), #168, .T. ) ;
#213 = CLOSED_SHELL ( 'NONE', ( #212, #150, #65 ) ) ;
#214 = VERTEX_POINT ( 'NONE', #2 ) ;
#215 = EDGE_LOOP ( 'NONE', ( #90 ) ) ;
#216 = CC_DESIGN_PERSON_AND_ORGANIZATION_ASSIGNMENT ( #217, #225, ( #171 ) ) ;
#217 = PERSON_AND_ORGANIZATION ( #228, #191 ) ;
#218 = AXIS2_PLACEMENT_3D ( 'NONE', #33, #130, #227 ) ;
#219 = SECURITY_CLASSIFICATION_LEVEL ( 'unclassified' ) ;
#220 = DIRECTION ( 'NONE',  ( 0.000000000000000000, -1.000000000000000000, 0.000000000000000000 ) ) ;
#221 = DATE_AND_TIME ( #142, #12 ) ;
#222 = EDGE_CURVE ( 'NONE', #214, #214, #51, .T. ) ;
#223 = FACE_OUTER_BOUND ( 'NONE', #175, .T. ) ;
#224 = ORIENTED_EDGE ( 'NONE', *, *, #222, .F. ) ;
#225 = PERSON_AND_ORGANIZATION_ROLE ( 'design_supplier' ) ;
#226 = APPROVAL_PERSON_ORGANIZATION ( #8, #155, #82 ) ;
#227 = DIRECTION ( 'NONE',  ( -4.275831445896958607E-31, -1.000000000000000000, -1.224646799147353207E-16 ) ) ;
#228 = PERSON ( 'UNSPECIFIED', 'UNSPECIFIED', 'UNSPECIFIED', ('UNSPECIFIED'), ('UNSPECIFIED'), ('UNSPECIFIED') ) ;
#229 = AXIS2_PLACEMENT_3D ( 'NONE', #62, #47, #220 ) ;
#230 = EDGE_CURVE ( 'NONE', #233, #233, #162, .T. ) ;
#231 = EDGE_LOOP ( 'NONE', ( #235 ) ) ;
#232 = DATE_TIME_ROLE ( 'creation_date' ) ;
#233 = VERTEX_POINT ( 'NONE', #91 ) ;
#234 =( GEOMETRIC_REPRESENTATION_CONTEXT ( 3 ) GLOBAL_UNCERTAINTY_ASSIGNED_CONTEXT ( ( #173 ) ) GLOBAL_UNIT_ASSIGNED_CONTEXT ( ( #111, #116, #94 ) ) REPRESENTATION_CONTEXT ( 'NONE', 'WORKASPACE' ) );
#235 = ORIENTED_EDGE ( 'NONE', *, *, #71, .T. ) ;
#236 = DIRECTION ( 'NONE',  ( 0.000000000000000000, 1.000000000000000000, 0.000000000000000000 ) ) ;
#237 = CARTESIAN_POINT ( 'NONE',  ( 2.601153597438134034E-13, 2.999999999999994671, 74.50000000000000000 ) ) ;
#238 = CARTESIAN_POINT ( 'NONE',  ( 9.147681107769013177E-14, -3.208574613766066483E-15, 26.20000000000000639 ) ) ;
#239 = AXIS2_PLACEMENT_3D ( 'NONE', #93, #179, #60 ) ;
#240 = PERSON_AND_ORGANIZATION ( #228, #191 ) ;
#241 = FACE_OUTER_BOUND ( 'NONE', #192, .T. ) ;
#242 = CONICAL_SURFACE ( 'NONE', #131, 2.500000000000003997, 0.7853981633974479459 ) ;
#243 = EDGE_LOOP ( 'NONE', ( #145 ) ) ;
ENDSEC;
END-ISO-10303-21;
