ISO-10303-21;
HEADER;
FILE_DESCRIPTION (( 'STEP AP203' ),
    '1' );
FILE_NAME ('970178.step',
    '2024-07-12T09:23:08',
    ( '' ),
    ( '' ),
    'SwSTEP 2.0',
    'SolidWorks 2022',
    '' );
FILE_SCHEMA (( 'CONFIG_CONTROL_DESIGN' ));
ENDSEC;

DATA;
#1 = AXIS2_PLACEMENT_3D ( 'NONE', #103, #215, #164 ) ;
#2 = CARTESIAN_POINT ( 'NONE',  ( 5.656199768925878560E-14, 2.999999999999991118, 16.20000000000000639 ) ) ;
#3 = CALENDAR_DATE ( 2024, 12, 7 ) ;
#4 = DIRECTION ( 'NONE',  ( -3.491481338843133355E-15, 1.224646799147353207E-16, -1.000000000000000000 ) ) ;
#5 = PERSON ( 'UNSPECIFIED', 'UNSPECIFIED', 'UNSPECIFIED', ('UNSPECIFIED'), ('UNSPECIFIED'), ('UNSPECIFIED') ) ;
#6 = APPROVAL_ROLE ( '' ) ;
#7 = ORGANIZATION ( 'UNSPECIFIED', 'UNSPECIFIED', '' ) ;
#8 = SECURITY_CLASSIFICATION_LEVEL ( 'unclassified' ) ;
#9 = DIRECTION ( 'NONE',  ( 4.275831445896958607E-31, 1.000000000000000000, 1.224646799147353207E-16 ) ) ;
#10 = DATE_TIME_ROLE ( 'classification_date' ) ;
#11 = APPLICATION_CONTEXT ( 'configuration controlled 3d designs of mechanical parts and assemblies' ) ;
#12 = CONICAL_SURFACE ( 'NONE', #33, 2.500000000000003997, 0.7853981633974479459 ) ;
#13 = DIRECTION ( 'NONE',  ( 4.275831445896958607E-31, 1.000000000000000000, 1.224646799147353207E-16 ) ) ;
#14 = AXIS2_PLACEMENT_3D ( 'NONE', #109, #186, #77 ) ;
#15 =( LENGTH_UNIT ( ) NAMED_UNIT ( * ) SI_UNIT ( .MILLI., .METRE. ) );
#16 = APPROVAL_PERSON_ORGANIZATION ( #228, #28, #158 ) ;
#17 = DIRECTION ( 'NONE',  ( 4.275831445896958607E-31, 1.000000000000000000, 1.224646799147353207E-16 ) ) ;
#18 = COORDINATED_UNIVERSAL_TIME_OFFSET ( 1, 0, .AHEAD. ) ;
#19 = PERSON_AND_ORGANIZATION_ROLE ( 'classification_officer' ) ;
#20 = CARTESIAN_POINT ( 'NONE',  ( -8.551662891793915461E-31, 2.999519565323715216E-32, -2.449293598294706414E-16 ) ) ;
#21 = PERSON_AND_ORGANIZATION_ROLE ( 'creator' ) ;
#22 = DIRECTION ( 'NONE',  ( 4.275831445896958607E-31, 1.000000000000000000, 1.224646799147353207E-16 ) ) ;
#23 = APPROVAL_ROLE ( '' ) ;
#24 =( GEOMETRIC_REPRESENTATION_CONTEXT ( 3 ) GLOBAL_UNCERTAINTY_ASSIGNED_CONTEXT ( ( #120 ) ) GLOBAL_UNIT_ASSIGNED_CONTEXT ( ( #15, #167, #242 ) ) REPRESENTATION_CONTEXT ( 'NONE', 'WORKASPACE' ) );
#25 = DIRECTION ( 'NONE',  ( 0.000000000000000000, 1.000000000000000000, 0.000000000000000000 ) ) ;
#26 = FACE_BOUND ( 'NONE', #224, .T. ) ;
#27 = PLANE ( 'NONE',  #180 ) ;
#28 = APPROVAL ( #100, 'UNSPECIFIED' ) ;
#29 = SECURITY_CLASSIFICATION ( '', '', #8 ) ;
#30 = AXIS2_PLACEMENT_3D ( 'NONE', #35, #185, #37 ) ;
#31 = ADVANCED_FACE ( 'NONE', ( #172 ), #74, .F. ) ;
#32 = CONICAL_SURFACE ( 'NONE', #14, 1.800000000000000044, 0.7853981633974427279 ) ;
#33 = AXIS2_PLACEMENT_3D ( 'NONE', #116, #59, #101 ) ;
#34 = EDGE_LOOP ( 'NONE', ( #182 ) ) ;
#35 = CARTESIAN_POINT ( 'NONE',  ( 0.000000000000000000, 0.000000000000000000, 0.000000000000000000 ) ) ;
#36 = ADVANCED_FACE ( 'NONE', ( #38, #111 ), #32, .T. ) ;
#37 = DIRECTION ( 'NONE',  ( 1.000000000000000000, 0.000000000000000000, 0.000000000000000000 ) ) ;
#38 = FACE_OUTER_BOUND ( 'NONE', #168, .T. ) ;
#39 = VERTEX_POINT ( 'NONE', #130 ) ;
#40 = DIRECTION ( 'NONE',  ( 3.491481338843133355E-15, -1.224646799147353207E-16, 1.000000000000000000 ) ) ;
#41 = PERSON_AND_ORGANIZATION ( #5, #7 ) ;
#42 = DIRECTION ( 'NONE',  ( -3.491481338843133355E-15, 1.224646799147353207E-16, -1.000000000000000000 ) ) ;
#43 = PERSON_AND_ORGANIZATION ( #5, #7 ) ;
#44 = APPROVAL_DATE_TIME ( #113, #79 ) ;
#45 = PRODUCT ( '970178', '970178', '', ( #166 ) ) ;
#46 = CIRCLE ( 'NONE', #102, 2.500000000000003997 ) ;
#47 = FACE_OUTER_BOUND ( 'NONE', #222, .T. ) ;
#48 = LOCAL_TIME ( 11, 23, 8.000000000000000000, #231 ) ;
#49 = CC_DESIGN_DATE_AND_TIME_ASSIGNMENT ( #212, #10, ( #29 ) ) ;
#50 = CARTESIAN_POINT ( 'NONE',  ( 0.000000000000000000, 0.000000000000000000, 0.000000000000000000 ) ) ;
#51 = AXIS2_PLACEMENT_3D ( 'NONE', #175, #4, #97 ) ;
#52 = EDGE_LOOP ( 'NONE', ( #150 ) ) ;
#53 = CC_DESIGN_APPROVAL ( #68, ( #29 ) ) ;
#54 = ORIENTED_EDGE ( 'NONE', *, *, #132, .T. ) ;
#55 = CARTESIAN_POINT ( 'NONE',  ( 2.618611004132350143E-13, 2.499999999999994671, 75.00000000000000000 ) ) ;
#56 = CARTESIAN_POINT ( 'NONE',  ( 2.269462870248036681E-14, 1.349783804395670479E-32, 6.500000000000000000 ) ) ;
#57 = VERTEX_POINT ( 'NONE', #151 ) ;
#58 = APPROVAL_STATUS ( 'not_yet_approved' ) ;
#59 = DIRECTION ( 'NONE',  ( -3.491481338843133355E-15, 1.224646799147353207E-16, -1.000000000000000000 ) ) ;
#60 = PERSON_AND_ORGANIZATION ( #5, #7 ) ;
#61 = CARTESIAN_POINT ( 'NONE',  ( 5.656199768925878560E-14, -1.983927814618713029E-15, 16.20000000000000639 ) ) ;
#62 = APPROVAL_DATE_TIME ( #159, #68 ) ;
#63 = LOCAL_TIME ( 11, 23, 8.000000000000000000, #18 ) ;
#64 = PLANE ( 'NONE',  #171 ) ;
#65 = ADVANCED_FACE ( 'NONE', ( #156, #227 ), #187, .T. ) ;
#66 = PRODUCT_DEFINITION_FORMATION_WITH_SPECIFIED_SOURCE ( 'ANY', '', #45, .NOT_KNOWN. ) ;
#67 = FACE_OUTER_BOUND ( 'NONE', #241, .T. ) ;
#68 = APPROVAL ( #189, 'UNSPECIFIED' ) ;
#69 = DIRECTION ( 'NONE',  ( -3.491481338843133355E-15, 1.224646799147353207E-16, -1.000000000000000000 ) ) ;
#70 = CARTESIAN_POINT ( 'NONE',  ( 2.601153597438134034E-13, 2.999999999999994671, 74.50000000000000000 ) ) ;
#71 = ORIENTED_EDGE ( 'NONE', *, *, #104, .F. ) ;
#72 = EDGE_CURVE ( 'NONE', #93, #93, #75, .T. ) ;
#73 = ORIENTED_EDGE ( 'NONE', *, *, #72, .T. ) ;
#74 = PLANE ( 'NONE',  #235 ) ;
#75 = CIRCLE ( 'NONE', #123, 2.999999999999993339 ) ;
#76 = AXIS2_PLACEMENT_3D ( 'NONE', #50, #69, #17 ) ;
#77 = DIRECTION ( 'NONE',  ( 0.000000000000000000, -1.000000000000000000, 0.000000000000000000 ) ) ;
#78 = CALENDAR_DATE ( 2024, 12, 7 ) ;
#79 = APPROVAL ( #58, 'UNSPECIFIED' ) ;
#80 = FACE_OUTER_BOUND ( 'NONE', #243, .T. ) ;
#81 = COORDINATED_UNIVERSAL_TIME_OFFSET ( 1, 0, .AHEAD. ) ;
#82 = FACE_OUTER_BOUND ( 'NONE', #108, .T. ) ;
#83 = CALENDAR_DATE ( 2024, 12, 7 ) ;
#84 = DIRECTION ( 'NONE',  ( -3.491481338843133355E-15, 1.224646799147353207E-16, -1.000000000000000000 ) ) ;
#85 = CC_DESIGN_PERSON_AND_ORGANIZATION_ASSIGNMENT ( #41, #176, ( #66 ) ) ;
#86 = APPROVAL_DATE_TIME ( #229, #28 ) ;
#87 = DIRECTION ( 'NONE',  ( -4.275831445896958607E-31, -1.000000000000000000, -1.224646799147353207E-16 ) ) ;
#88 = FACE_OUTER_BOUND ( 'NONE', #52, .T. ) ;
#89 = EDGE_CURVE ( 'NONE', #155, #155, #128, .T. ) ;
#90 = EDGE_LOOP ( 'NONE', ( #217 ) ) ;
#91 = LOCAL_TIME ( 11, 23, 8.000000000000000000, #81 ) ;
#92 = CARTESIAN_POINT ( 'NONE',  ( 2.269462870248036681E-14, 1.999999999999999112, 6.500000000000000000 ) ) ;
#93 = VERTEX_POINT ( 'NONE', #2 ) ;
#94 = EDGE_CURVE ( 'NONE', #57, #57, #140, .T. ) ;
#95 = CARTESIAN_POINT ( 'NONE',  ( 0.000000000000000000, 0.000000000000000000, 0.000000000000000000 ) ) ;
#96 = PERSON_AND_ORGANIZATION ( #5, #7 ) ;
#97 = DIRECTION ( 'NONE',  ( 0.000000000000000000, 1.000000000000000000, 0.000000000000000000 ) ) ;
#98 = COORDINATED_UNIVERSAL_TIME_OFFSET ( 1, 0, .AHEAD. ) ;
#99 = CARTESIAN_POINT ( 'NONE',  ( 2.269462870248036681E-14, -7.960204194457795477E-16, 6.500000000000000000 ) ) ;
#100 = APPROVAL_STATUS ( 'not_yet_approved' ) ;
#101 = DIRECTION ( 'NONE',  ( 0.000000000000000000, 1.000000000000000000, 0.000000000000000000 ) ) ;
#102 = AXIS2_PLACEMENT_3D ( 'NONE', #118, #210, #230 ) ;
#103 = CARTESIAN_POINT ( 'NONE',  ( 0.000000000000000000, 0.000000000000000000, 0.000000000000000000 ) ) ;
#104 = EDGE_CURVE ( 'NONE', #133, #133, #46, .T. ) ;
#105 = EDGE_LOOP ( 'NONE', ( #146 ) ) ;
#106 = APPLICATION_PROTOCOL_DEFINITION ( 'international standard', 'config_control_design', 1994, #11 ) ;
#107 = EDGE_CURVE ( 'NONE', #204, #204, #240, .T. ) ;
#108 = EDGE_LOOP ( 'NONE', ( #71 ) ) ;
#109 = CARTESIAN_POINT ( 'NONE',  ( 5.237222008264700033E-14, -1.836970198721029589E-15, 15.00000000000000000 ) ) ;
#110 = ADVANCED_FACE ( 'NONE', ( #82 ), #195, .F. ) ;
#111 = FACE_BOUND ( 'NONE', #153, .T. ) ;
#112 = PERSON_AND_ORGANIZATION_ROLE ( 'creator' ) ;
#113 = DATE_AND_TIME ( #78, #196 ) ;
#114 = DIRECTION ( 'NONE',  ( 0.000000000000000000, 1.000000000000000000, 0.000000000000000000 ) ) ;
#115 = PERSON_AND_ORGANIZATION ( #5, #7 ) ;
#116 = CARTESIAN_POINT ( 'NONE',  ( 2.618611004132350143E-13, -9.184850993605148733E-15, 75.00000000000000000 ) ) ;
#117 = DATE_TIME_ROLE ( 'creation_date' ) ;
#118 = CARTESIAN_POINT ( 'NONE',  ( 2.618611004132350143E-13, -9.184850993605148733E-15, 75.00000000000000000 ) ) ;
#119 = PERSON_AND_ORGANIZATION ( #5, #7 ) ;
#120 = UNCERTAINTY_MEASURE_WITH_UNIT (LENGTH_MEASURE( 1.000000000000000082E-05 ), #15, 'distance_accuracy_value', 'NONE');
#121 = CC_DESIGN_PERSON_AND_ORGANIZATION_ASSIGNMENT ( #191, #21, ( #66 ) ) ;
#122 = CARTESIAN_POINT ( 'NONE',  ( -4.275831445896957731E-31, 1.499759782661857608E-32, -1.224646799147353207E-16 ) ) ;
#123 = AXIS2_PLACEMENT_3D ( 'NONE', #61, #211, #25 ) ;
#124 = APPROVAL_PERSON_ORGANIZATION ( #115, #68, #6 ) ;
#125 = DIRECTION ( 'NONE',  ( -3.491481338843133355E-15, 1.224646799147353207E-16, -1.000000000000000000 ) ) ;
#126 = ORIENTED_EDGE ( 'NONE', *, *, #94, .T. ) ;
#127 = ORIENTED_EDGE ( 'NONE', *, *, #169, .F. ) ;
#128 = CIRCLE ( 'NONE', #220, 3.000000000000003997 ) ;
#129 = ORIENTED_EDGE ( 'NONE', *, *, #104, .T. ) ;
#130 = CARTESIAN_POINT ( 'NONE',  ( 2.269462870248036681E-14, 1.799999999999998712, 6.500000000000000000 ) ) ;
#131 = DIRECTION ( 'NONE',  ( -4.275831445896958607E-31, -1.000000000000000000, -1.224646799147353207E-16 ) ) ;
#132 = EDGE_CURVE ( 'NONE', #39, #39, #181, .T. ) ;
#133 = VERTEX_POINT ( 'NONE', #55 ) ;
#134 = LOCAL_TIME ( 11, 23, 8.000000000000000000, #98 ) ;
#135 = CARTESIAN_POINT ( 'NONE',  ( 2.601153597438134034E-13, -9.123618653647781159E-15, 74.50000000000000000 ) ) ;
#136 = ADVANCED_FACE ( 'NONE', ( #80 ), #27, .T. ) ;
#137 = CALENDAR_DATE ( 2024, 12, 7 ) ;
#138 = SHAPE_DEFINITION_REPRESENTATION ( #162, #203 ) ;
#139 = DIRECTION ( 'NONE',  ( -3.491481338843133355E-15, 1.224646799147353207E-16, -1.000000000000000000 ) ) ;
#140 = CIRCLE ( 'NONE', #154, 2.000000000000000000 ) ;
#141 = PERSON_AND_ORGANIZATION_ROLE ( 'design_owner' ) ;
#142 = CC_DESIGN_APPROVAL ( #79, ( #66 ) ) ;
#143 = CC_DESIGN_PERSON_AND_ORGANIZATION_ASSIGNMENT ( #60, #112, ( #184 ) ) ;
#144 = FACE_OUTER_BOUND ( 'NONE', #165, .T. ) ;
#145 = ORIENTED_EDGE ( 'NONE', *, *, #94, .F. ) ;
#146 = ORIENTED_EDGE ( 'NONE', *, *, #132, .F. ) ;
#147 = ORIENTED_EDGE ( 'NONE', *, *, #169, .T. ) ;
#148 = ADVANCED_FACE ( 'NONE', ( #157, #26 ), #12, .T. ) ;
#149 = APPROVAL_PERSON_ORGANIZATION ( #96, #79, #23 ) ;
#150 = ORIENTED_EDGE ( 'NONE', *, *, #72, .F. ) ;
#151 = CARTESIAN_POINT ( 'NONE',  ( 1.710569414459005214E-46, 2.000000000000000000, 0.000000000000000000 ) ) ;
#152 = EDGE_LOOP ( 'NONE', ( #54 ) ) ;
#153 = EDGE_LOOP ( 'NONE', ( #201 ) ) ;
#154 = AXIS2_PLACEMENT_3D ( 'NONE', #20, #139, #22 ) ;
#155 = VERTEX_POINT ( 'NONE', #70 ) ;
#156 = FACE_OUTER_BOUND ( 'NONE', #34, .T. ) ;
#157 = FACE_OUTER_BOUND ( 'NONE', #90, .T. ) ;
#158 = APPROVAL_ROLE ( '' ) ;
#159 = DATE_AND_TIME ( #137, #91 ) ;
#160 = CARTESIAN_POINT ( 'NONE',  ( 2.269462870248036681E-14, 1.499759782661856239E-32, 6.500000000000000000 ) ) ;
#161 = AXIS2_PLACEMENT_3D ( 'NONE', #190, #84, #177 ) ;
#162 = PRODUCT_DEFINITION_SHAPE ( 'NONE', 'NONE',  #184 ) ;
#163 = CIRCLE ( 'NONE', #209, 2.000000000000000000 ) ;
#164 = DIRECTION ( 'NONE',  ( 4.275831445896958607E-31, 1.000000000000000000, 1.224646799147353454E-16 ) ) ;
#165 = EDGE_LOOP ( 'NONE', ( #145 ) ) ;
#166 = MECHANICAL_CONTEXT ( 'NONE', #11, 'mechanical' ) ;
#167 =( NAMED_UNIT ( * ) PLANE_ANGLE_UNIT ( ) SI_UNIT ( $, .RADIAN. ) );
#168 = EDGE_LOOP ( 'NONE', ( #73 ) ) ;
#169 = EDGE_CURVE ( 'NONE', #183, #183, #163, .T. ) ;
#170 = AXIS2_PLACEMENT_3D ( 'NONE', #95, #173, #9 ) ;
#171 = AXIS2_PLACEMENT_3D ( 'NONE', #122, #125, #13 ) ;
#172 = FACE_OUTER_BOUND ( 'NONE', #152, .T. ) ;
#173 = DIRECTION ( 'NONE',  ( -3.491481338843133355E-15, 1.224646799147353207E-16, -1.000000000000000000 ) ) ;
#174 = COORDINATED_UNIVERSAL_TIME_OFFSET ( 1, 0, .AHEAD. ) ;
#175 = CARTESIAN_POINT ( 'NONE',  ( 2.269462870248036681E-14, -7.960204194457795477E-16, 6.500000000000000000 ) ) ;
#176 = PERSON_AND_ORGANIZATION_ROLE ( 'design_supplier' ) ;
#177 = DIRECTION ( 'NONE',  ( 4.275831445896958607E-31, 1.000000000000000000, 1.224646799147353207E-16 ) ) ;
#178 = DATE_AND_TIME ( #3, #48 ) ;
#179 = DIRECTION ( 'NONE',  ( 3.491481338843133355E-15, -1.224646799147353207E-16, 1.000000000000000000 ) ) ;
#180 = AXIS2_PLACEMENT_3D ( 'NONE', #160, #179, #87 ) ;
#181 = CIRCLE ( 'NONE', #51, 1.799999999999999600 ) ;
#182 = ORIENTED_EDGE ( 'NONE', *, *, #107, .T. ) ;
#183 = VERTEX_POINT ( 'NONE', #92 ) ;
#184 = PRODUCT_DEFINITION ( 'UNKNOWN', '', #66, #188 ) ;
#185 = DIRECTION ( 'NONE',  ( 0.000000000000000000, 0.000000000000000000, 1.000000000000000000 ) ) ;
#186 = DIRECTION ( 'NONE',  ( 3.491481338843133355E-15, -1.224646799147353207E-16, 1.000000000000000000 ) ) ;
#187 = CYLINDRICAL_SURFACE ( 'NONE', #170, 1.799999999999999822 ) ;
#188 = DESIGN_CONTEXT ( 'detailed design', #236, 'design' ) ;
#189 = APPROVAL_STATUS ( 'not_yet_approved' ) ;
#190 = CARTESIAN_POINT ( 'NONE',  ( 2.618611004132350143E-13, 1.874699728327311336E-32, 75.00000000000000000 ) ) ;
#191 = PERSON_AND_ORGANIZATION ( #5, #7 ) ;
#192 = DIRECTION ( 'NONE',  ( -3.491481338843133355E-15, 1.224646799147353207E-16, -1.000000000000000000 ) ) ;
#193 = APPLICATION_PROTOCOL_DEFINITION ( 'international standard', 'config_control_design', 1994, #236 ) ;
#194 = DIRECTION ( 'NONE',  ( 0.000000000000000000, 1.000000000000000000, 0.000000000000000000 ) ) ;
#195 = PLANE ( 'NONE',  #161 ) ;
#196 = LOCAL_TIME ( 11, 23, 8.000000000000000000, #174 ) ;
#197 = CC_DESIGN_PERSON_AND_ORGANIZATION_ASSIGNMENT ( #119, #19, ( #29 ) ) ;
#198 = CC_DESIGN_APPROVAL ( #28, ( #184 ) ) ;
#199 = ADVANCED_FACE ( 'NONE', ( #67 ), #64, .T. ) ;
#200 = FACE_OUTER_BOUND ( 'NONE', #202, .T. ) ;
#201 = ORIENTED_EDGE ( 'NONE', *, *, #107, .F. ) ;
#202 = EDGE_LOOP ( 'NONE', ( #147 ) ) ;
#203 = ADVANCED_BREP_SHAPE_REPRESENTATION ( '970178', ( #219, #221, #30 ), #24 ) ;
#204 = VERTEX_POINT ( 'NONE', #207 ) ;
#205 = CLOSED_SHELL ( 'NONE', ( #199, #239, #136 ) ) ;
#206 = CC_DESIGN_SECURITY_CLASSIFICATION ( #29, ( #66 ) ) ;
#207 = CARTESIAN_POINT ( 'NONE',  ( 5.237222008264700033E-14, 1.799999999999998268, 15.00000000000000000 ) ) ;
#208 = CC_DESIGN_DATE_AND_TIME_ASSIGNMENT ( #178, #117, ( #184 ) ) ;
#209 = AXIS2_PLACEMENT_3D ( 'NONE', #99, #234, #232 ) ;
#210 = DIRECTION ( 'NONE',  ( -3.491481338843133355E-15, 1.224646799147353207E-16, -1.000000000000000000 ) ) ;
#211 = DIRECTION ( 'NONE',  ( -3.491481338843133355E-15, 1.224646799147353207E-16, -1.000000000000000000 ) ) ;
#212 = DATE_AND_TIME ( #83, #134 ) ;
#213 = CARTESIAN_POINT ( 'NONE',  ( 5.237222008264700033E-14, -1.836970198721029589E-15, 15.00000000000000000 ) ) ;
#214 = AXIS2_PLACEMENT_3D ( 'NONE', #213, #42, #194 ) ;
#215 = DIRECTION ( 'NONE',  ( -3.491481338843133355E-15, 1.224646799147353207E-16, -1.000000000000000000 ) ) ;
#216 = CYLINDRICAL_SURFACE ( 'NONE', #76, 2.000000000000000000 ) ;
#217 = ORIENTED_EDGE ( 'NONE', *, *, #89, .F. ) ;
#218 = ORIENTED_EDGE ( 'NONE', *, *, #89, .T. ) ;
#219 = MANIFOLD_SOLID_BREP ( 'Corps-Déplacer/Copier1[1]', #226 ) ;
#220 = AXIS2_PLACEMENT_3D ( 'NONE', #135, #192, #114 ) ;
#221 = MANIFOLD_SOLID_BREP ( 'Corps-Déplacer/Copier1[2]', #205 ) ;
#222 = EDGE_LOOP ( 'NONE', ( #218 ) ) ;
#223 = CC_DESIGN_PERSON_AND_ORGANIZATION_ASSIGNMENT ( #43, #141, ( #45 ) ) ;
#224 = EDGE_LOOP ( 'NONE', ( #129 ) ) ;
#225 = PRODUCT_RELATED_PRODUCT_CATEGORY ( 'detail', '', ( #45 ) ) ;
#226 = CLOSED_SHELL ( 'NONE', ( #31, #65, #36, #237, #148, #110 ) ) ;
#227 = FACE_OUTER_BOUND ( 'NONE', #105, .T. ) ;
#228 = PERSON_AND_ORGANIZATION ( #5, #7 ) ;
#229 = DATE_AND_TIME ( #233, #63 ) ;
#230 = DIRECTION ( 'NONE',  ( 0.000000000000000000, 1.000000000000000000, 0.000000000000000000 ) ) ;
#231 = COORDINATED_UNIVERSAL_TIME_OFFSET ( 1, 0, .AHEAD. ) ;
#232 = DIRECTION ( 'NONE',  ( 0.000000000000000000, 1.000000000000000000, 0.000000000000000000 ) ) ;
#233 = CALENDAR_DATE ( 2024, 12, 7 ) ;
#234 = DIRECTION ( 'NONE',  ( -3.491481338843133355E-15, 1.224646799147353207E-16, -1.000000000000000000 ) ) ;
#235 = AXIS2_PLACEMENT_3D ( 'NONE', #56, #40, #131 ) ;
#236 = APPLICATION_CONTEXT ( 'configuration controlled 3d designs of mechanical parts and assemblies' ) ;
#237 = ADVANCED_FACE ( 'NONE', ( #88, #47 ), #238, .T. ) ;
#238 = CYLINDRICAL_SURFACE ( 'NONE', #1, 2.999999999999998224 ) ;
#239 = ADVANCED_FACE ( 'NONE', ( #200, #144 ), #216, .T. ) ;
#240 = CIRCLE ( 'NONE', #214, 1.800000000000000044 ) ;
#241 = EDGE_LOOP ( 'NONE', ( #126 ) ) ;
#242 =( NAMED_UNIT ( * ) SI_UNIT ( $, .STERADIAN. ) SOLID_ANGLE_UNIT ( ) );
#243 = EDGE_LOOP ( 'NONE', ( #127 ) ) ;
ENDSEC;
END-ISO-10303-21;
