ISO-10303-21;
HEADER;
FILE_DESCRIPTION (( 'STEP AP203' ),
    '1' );
FILE_NAME ('970177.step',
    '2024-07-12T09:23:08',
    ( '' ),
    ( '' ),
    'SwSTEP 2.0',
    'SolidWorks 2022',
    '' );
FILE_SCHEMA (( 'CONFIG_CONTROL_DESIGN' ));
ENDSEC;

DATA;
#1 = MECHANICAL_CONTEXT ( 'NONE', #176, 'mechanical' ) ;
#2 = PRODUCT_DEFINITION_FORMATION_WITH_SPECIFIED_SOURCE ( 'ANY', '', #40, .NOT_KNOWN. ) ;
#3 = APPROVAL_ROLE ( '' ) ;
#4 = FACE_BOUND ( 'NONE', #130, .T. ) ;
#5 = CIRCLE ( 'NONE', #143, 1.299999999999999156 ) ;
#6 = CALENDAR_DATE ( 2024, 12, 7 ) ;
#7 = APPROVAL ( #232, 'UNSPECIFIED' ) ;
#8 = AXIS2_PLACEMENT_3D ( 'NONE', #9, #109, #239 ) ;
#9 = CARTESIAN_POINT ( 'NONE',  ( -6.413747168845438786E-31, 2.249639673992786412E-32, -1.836970198721029934E-16 ) ) ;
#10 = DIRECTION ( 'NONE',  ( -4.275831445896958607E-31, -1.000000000000000000, -1.224646799147353207E-16 ) ) ;
#11 = ORIENTED_EDGE ( 'NONE', *, *, #76, .T. ) ;
#12 = UNCERTAINTY_MEASURE_WITH_UNIT (LENGTH_MEASURE( 1.000000000000000082E-05 ), #194, 'distance_accuracy_value', 'NONE');
#13 = PRODUCT_DEFINITION ( 'UNKNOWN', '', #2, #168 ) ;
#14 = CYLINDRICAL_SURFACE ( 'NONE', #195, 1.299999999999999600 ) ;
#15 = EDGE_LOOP ( 'NONE', ( #62 ) ) ;
#16 = COORDINATED_UNIVERSAL_TIME_OFFSET ( 1, 0, .AHEAD. ) ;
#17 = SECURITY_CLASSIFICATION_LEVEL ( 'unclassified' ) ;
#18 = PRODUCT_RELATED_PRODUCT_CATEGORY ( 'detail', '', ( #40 ) ) ;
#19 = PERSON_AND_ORGANIZATION_ROLE ( 'creator' ) ;
#20 = ORGANIZATION ( 'UNSPECIFIED', 'UNSPECIFIED', '' ) ;
#21 = DIRECTION ( 'NONE',  ( 0.000000000000000000, 1.000000000000000000, 0.000000000000000000 ) ) ;
#22 = CARTESIAN_POINT ( 'NONE',  ( 1.396592535537253342E-14, 1.299999999999998712, 4.000000000000000000 ) ) ;
#23 = ADVANCED_FACE ( 'NONE', ( #178, #162 ), #243, .T. ) ;
#24 = EDGE_LOOP ( 'NONE', ( #81 ) ) ;
#25 = ORIENTED_EDGE ( 'NONE', *, *, #211, .F. ) ;
#26 = ORIENTED_EDGE ( 'NONE', *, *, #170, .T. ) ;
#27 = CONICAL_SURFACE ( 'NONE', #159, 2.500000000000003997, 0.7853981633974479459 ) ;
#28 = FACE_OUTER_BOUND ( 'NONE', #227, .T. ) ;
#29 = CC_DESIGN_PERSON_AND_ORGANIZATION_ASSIGNMENT ( #119, #188, ( #40 ) ) ;
#30 = DIRECTION ( 'NONE',  ( 3.491481338843133355E-15, -1.224646799147353207E-16, 1.000000000000000000 ) ) ;
#31 = DATE_TIME_ROLE ( 'classification_date' ) ;
#32 = DIRECTION ( 'NONE',  ( -3.491481338843133355E-15, 1.224646799147353207E-16, -1.000000000000000000 ) ) ;
#33 = DATE_AND_TIME ( #151, #75 ) ;
#34 = CC_DESIGN_PERSON_AND_ORGANIZATION_ASSIGNMENT ( #205, #90, ( #154 ) ) ;
#35 = FACE_OUTER_BOUND ( 'NONE', #50, .T. ) ;
#36 = DIRECTION ( 'NONE',  ( 0.000000000000000000, 1.000000000000000000, 0.000000000000000000 ) ) ;
#37 = DIRECTION ( 'NONE',  ( 0.000000000000000000, 1.000000000000000000, 0.000000000000000000 ) ) ;
#38 = VERTEX_POINT ( 'NONE', #213 ) ;
#39 = COORDINATED_UNIVERSAL_TIME_OFFSET ( 1, 0, .AHEAD. ) ;
#40 = PRODUCT ( '970177', '970177', '', ( #1 ) ) ;
#41 = AXIS2_PLACEMENT_3D ( 'NONE', #131, #74, #36 ) ;
#42 = CC_DESIGN_DATE_AND_TIME_ASSIGNMENT ( #33, #31, ( #154 ) ) ;
#43 = MANIFOLD_SOLID_BREP ( 'Corps-Déplacer/Copier1[2]', #137 ) ;
#44 = EDGE_LOOP ( 'NONE', ( #138 ) ) ;
#45 = COORDINATED_UNIVERSAL_TIME_OFFSET ( 1, 0, .AHEAD. ) ;
#46 = PERSON_AND_ORGANIZATION ( #158, #20 ) ;
#47 = ADVANCED_FACE ( 'NONE', ( #226, #35 ), #14, .T. ) ;
#48 = AXIS2_PLACEMENT_3D ( 'NONE', #93, #164, #152 ) ;
#49 = CARTESIAN_POINT ( 'NONE',  ( 0.000000000000000000, 0.000000000000000000, 0.000000000000000000 ) ) ;
#50 = EDGE_LOOP ( 'NONE', ( #214 ) ) ;
#51 = DIRECTION ( 'NONE',  ( 0.000000000000000000, 1.000000000000000000, 0.000000000000000000 ) ) ;
#52 = CC_DESIGN_PERSON_AND_ORGANIZATION_ASSIGNMENT ( #199, #64, ( #13 ) ) ;
#53 = CC_DESIGN_APPROVAL ( #7, ( #13 ) ) ;
#54 = APPROVAL_PERSON_ORGANIZATION ( #202, #61, #134 ) ;
#55 = DIRECTION ( 'NONE',  ( 3.491481338843133355E-15, -1.224646799147353207E-16, 1.000000000000000000 ) ) ;
#56 = APPROVAL_STATUS ( 'not_yet_approved' ) ;
#57 = CYLINDRICAL_SURFACE ( 'NONE', #65, 2.999999999999998668 ) ;
#58 = ADVANCED_BREP_SHAPE_REPRESENTATION ( '970177', ( #124, #43, #190 ), #125 ) ;
#59 = DIRECTION ( 'NONE',  ( 0.000000000000000000, 0.000000000000000000, 1.000000000000000000 ) ) ;
#60 = ADVANCED_FACE ( 'NONE', ( #237 ), #147, .F. ) ;
#61 = APPROVAL ( #56, 'UNSPECIFIED' ) ;
#62 = ORIENTED_EDGE ( 'NONE', *, *, #156, .F. ) ;
#63 =( NAMED_UNIT ( * ) SI_UNIT ( $, .STERADIAN. ) SOLID_ANGLE_UNIT ( ) );
#64 = PERSON_AND_ORGANIZATION_ROLE ( 'creator' ) ;
#65 = AXIS2_PLACEMENT_3D ( 'NONE', #136, #112, #183 ) ;
#66 = LOCAL_TIME ( 11, 23, 8.000000000000000000, #148 ) ;
#67 = APPROVAL_ROLE ( '' ) ;
#68 = DIRECTION ( 'NONE',  ( 0.000000000000000000, 1.000000000000000000, 0.000000000000000000 ) ) ;
#69 = DIRECTION ( 'NONE',  ( 4.275831445896959482E-31, 1.000000000000000000, 1.224646799147353207E-16 ) ) ;
#70 = AXIS2_PLACEMENT_3D ( 'NONE', #73, #133, #91 ) ;
#71 = ORIENTED_EDGE ( 'NONE', *, *, #111, .T. ) ;
#72 = CARTESIAN_POINT ( 'NONE',  ( 1.396592535537253342E-14, 1.124819836996392658E-32, 4.000000000000000000 ) ) ;
#73 = CARTESIAN_POINT ( 'NONE',  ( 1.396592535537253342E-14, 9.748438587302060766E-33, 4.000000000000000000 ) ) ;
#74 = DIRECTION ( 'NONE',  ( -3.491481338843133355E-15, 1.224646799147353207E-16, -1.000000000000000000 ) ) ;
#75 = LOCAL_TIME ( 11, 23, 8.000000000000000000, #16 ) ;
#76 = EDGE_CURVE ( 'NONE', #234, #234, #86, .T. ) ;
#77 = DIRECTION ( 'NONE',  ( -3.491481338843133355E-15, 1.224646799147353207E-16, -1.000000000000000000 ) ) ;
#78 = EDGE_LOOP ( 'NONE', ( #25 ) ) ;
#79 = CARTESIAN_POINT ( 'NONE',  ( 2.601153597438134034E-13, 2.999999999999994671, 74.50000000000000000 ) ) ;
#80 = LOCAL_TIME ( 11, 23, 8.000000000000000000, #45 ) ;
#81 = ORIENTED_EDGE ( 'NONE', *, *, #196, .F. ) ;
#82 = DATE_AND_TIME ( #116, #185 ) ;
#83 = CARTESIAN_POINT ( 'NONE',  ( 0.000000000000000000, 1.500000000000000000, 0.000000000000000000 ) ) ;
#84 = EDGE_LOOP ( 'NONE', ( #215 ) ) ;
#85 = ADVANCED_FACE ( 'NONE', ( #149 ), #106, .T. ) ;
#86 = CIRCLE ( 'NONE', #118, 2.999999999999993339 ) ;
#87 = VERTEX_POINT ( 'NONE', #187 ) ;
#88 = DATE_AND_TIME ( #6, #80 ) ;
#89 = APPROVAL_PERSON_ORGANIZATION ( #104, #122, #67 ) ;
#90 = PERSON_AND_ORGANIZATION_ROLE ( 'classification_officer' ) ;
#91 = DIRECTION ( 'NONE',  ( -4.275831445896958607E-31, -1.000000000000000000, -1.224646799147353207E-16 ) ) ;
#92 = ORIENTED_EDGE ( 'NONE', *, *, #211, .T. ) ;
#93 = CARTESIAN_POINT ( 'NONE',  ( 2.601153597438134034E-13, -9.123618653647781159E-15, 74.50000000000000000 ) ) ;
#94 = PERSON_AND_ORGANIZATION_ROLE ( 'design_supplier' ) ;
#95 = ADVANCED_FACE ( 'NONE', ( #110, #105 ), #179, .T. ) ;
#96 = CIRCLE ( 'NONE', #48, 3.000000000000003997 ) ;
#97 = DIRECTION ( 'NONE',  ( 4.275831445896958607E-31, 1.000000000000000000, 1.224646799147353207E-16 ) ) ;
#98 = APPLICATION_PROTOCOL_DEFINITION ( 'international standard', 'config_control_design', 1994, #176 ) ;
#99 = CARTESIAN_POINT ( 'NONE',  ( 7.576514505289602536E-14, 2.999999999999991118, 21.70000000000000995 ) ) ;
#100 =( NAMED_UNIT ( * ) PLANE_ANGLE_UNIT ( ) SI_UNIT ( $, .RADIAN. ) );
#101 = EDGE_CURVE ( 'NONE', #117, #117, #230, .T. ) ;
#102 = EDGE_LOOP ( 'NONE', ( #71 ) ) ;
#103 = AXIS2_PLACEMENT_3D ( 'NONE', #72, #55, #10 ) ;
#104 = PERSON_AND_ORGANIZATION ( #158, #20 ) ;
#105 = FACE_OUTER_BOUND ( 'NONE', #84, .T. ) ;
#106 = PLANE ( 'NONE',  #114 ) ;
#107 = DATE_AND_TIME ( #208, #66 ) ;
#108 = LOCAL_TIME ( 11, 23, 8.000000000000000000, #123 ) ;
#109 = DIRECTION ( 'NONE',  ( -3.491481338843133355E-15, 1.224646799147353207E-16, -1.000000000000000000 ) ) ;
#110 = FACE_OUTER_BOUND ( 'NONE', #193, .T. ) ;
#111 = EDGE_CURVE ( 'NONE', #192, #192, #5, .T. ) ;
#112 = DIRECTION ( 'NONE',  ( -3.491481338843133355E-15, 1.224646799147353207E-16, -1.000000000000000000 ) ) ;
#113 = CARTESIAN_POINT ( 'NONE',  ( 2.618611004132350143E-13, 1.874699728327311336E-32, 75.00000000000000000 ) ) ;
#114 = AXIS2_PLACEMENT_3D ( 'NONE', #242, #145, #182 ) ;
#115 = DIRECTION ( 'NONE',  ( -3.491481338843133355E-15, 1.224646799147353207E-16, -1.000000000000000000 ) ) ;
#116 = CALENDAR_DATE ( 2024, 12, 7 ) ;
#117 = VERTEX_POINT ( 'NONE', #83 ) ;
#118 = AXIS2_PLACEMENT_3D ( 'NONE', #198, #32, #166 ) ;
#119 = PERSON_AND_ORGANIZATION ( #158, #20 ) ;
#120 = EDGE_LOOP ( 'NONE', ( #11 ) ) ;
#121 = AXIS2_PLACEMENT_3D ( 'NONE', #150, #224, #51 ) ;
#122 = APPROVAL ( #144, 'UNSPECIFIED' ) ;
#123 = COORDINATED_UNIVERSAL_TIME_OFFSET ( 1, 0, .AHEAD. ) ;
#124 = MANIFOLD_SOLID_BREP ( 'Corps-Déplacer/Copier1[1]', #206 ) ;
#125 =( GEOMETRIC_REPRESENTATION_CONTEXT ( 3 ) GLOBAL_UNCERTAINTY_ASSIGNED_CONTEXT ( ( #12 ) ) GLOBAL_UNIT_ASSIGNED_CONTEXT ( ( #194, #100, #63 ) ) REPRESENTATION_CONTEXT ( 'NONE', 'WORKASPACE' ) );
#126 = EDGE_LOOP ( 'NONE', ( #233 ) ) ;
#127 = APPROVAL_DATE_TIME ( #82, #7 ) ;
#128 = CARTESIAN_POINT ( 'NONE',  ( 6.982962677686266711E-14, -2.449293598294706513E-15, 20.00000000000000000 ) ) ;
#129 = CARTESIAN_POINT ( 'NONE',  ( 0.000000000000000000, 0.000000000000000000, 0.000000000000000000 ) ) ;
#130 = EDGE_LOOP ( 'NONE', ( #92 ) ) ;
#131 = CARTESIAN_POINT ( 'NONE',  ( 6.982962677686266711E-14, -2.449293598294706513E-15, 20.00000000000000000 ) ) ;
#132 = AXIS2_PLACEMENT_3D ( 'NONE', #129, #163, #69 ) ;
#133 = DIRECTION ( 'NONE',  ( 3.491481338843133355E-15, -1.224646799147353207E-16, 1.000000000000000000 ) ) ;
#134 = APPROVAL_ROLE ( '' ) ;
#135 = CC_DESIGN_PERSON_AND_ORGANIZATION_ASSIGNMENT ( #46, #19, ( #2 ) ) ;
#136 = CARTESIAN_POINT ( 'NONE',  ( 0.000000000000000000, 0.000000000000000000, 0.000000000000000000 ) ) ;
#137 = CLOSED_SHELL ( 'NONE', ( #85, #95, #161 ) ) ;
#138 = ORIENTED_EDGE ( 'NONE', *, *, #196, .T. ) ;
#139 = AXIS2_PLACEMENT_3D ( 'NONE', #167, #77, #37 ) ;
#140 = APPLICATION_PROTOCOL_DEFINITION ( 'international standard', 'config_control_design', 1994, #184 ) ;
#141 = ORIENTED_EDGE ( 'NONE', *, *, #170, .F. ) ;
#142 = CARTESIAN_POINT ( 'NONE',  ( 0.000000000000000000, 0.000000000000000000, 0.000000000000000000 ) ) ;
#143 = AXIS2_PLACEMENT_3D ( 'NONE', #221, #223, #68 ) ;
#144 = APPROVAL_STATUS ( 'not_yet_approved' ) ;
#145 = DIRECTION ( 'NONE',  ( -3.491481338843133355E-15, 1.224646799147353207E-16, -1.000000000000000000 ) ) ;
#146 = FACE_OUTER_BOUND ( 'NONE', #126, .T. ) ;
#147 = PLANE ( 'NONE',  #70 ) ;
#148 = COORDINATED_UNIVERSAL_TIME_OFFSET ( 1, 0, .AHEAD. ) ;
#149 = FACE_OUTER_BOUND ( 'NONE', #177, .T. ) ;
#150 = CARTESIAN_POINT ( 'NONE',  ( 1.396592535537253342E-14, -4.898587196589412829E-16, 4.000000000000000000 ) ) ;
#151 = CALENDAR_DATE ( 2024, 12, 7 ) ;
#152 = DIRECTION ( 'NONE',  ( 0.000000000000000000, 1.000000000000000000, 0.000000000000000000 ) ) ;
#153 = CC_DESIGN_PERSON_AND_ORGANIZATION_ASSIGNMENT ( #180, #94, ( #2 ) ) ;
#154 = SECURITY_CLASSIFICATION ( '', '', #17 ) ;
#155 = FACE_OUTER_BOUND ( 'NONE', #78, .T. ) ;
#156 = EDGE_CURVE ( 'NONE', #173, #173, #96, .T. ) ;
#157 = PRODUCT_DEFINITION_SHAPE ( 'NONE', 'NONE',  #13 ) ;
#158 = PERSON ( 'UNSPECIFIED', 'UNSPECIFIED', 'UNSPECIFIED', ('UNSPECIFIED'), ('UNSPECIFIED'), ('UNSPECIFIED') ) ;
#159 = AXIS2_PLACEMENT_3D ( 'NONE', #217, #115, #21 ) ;
#160 = CALENDAR_DATE ( 2024, 12, 7 ) ;
#161 = ADVANCED_FACE ( 'NONE', ( #28 ), #240, .T. ) ;
#162 = FACE_BOUND ( 'NONE', #24, .T. ) ;
#163 = DIRECTION ( 'NONE',  ( -3.491481338843133355E-15, 1.224646799147353207E-16, -1.000000000000000000 ) ) ;
#164 = DIRECTION ( 'NONE',  ( -3.491481338843133355E-15, 1.224646799147353207E-16, -1.000000000000000000 ) ) ;
#165 = APPROVAL_DATE_TIME ( #107, #61 ) ;
#166 = DIRECTION ( 'NONE',  ( 0.000000000000000000, 1.000000000000000000, 0.000000000000000000 ) ) ;
#167 = CARTESIAN_POINT ( 'NONE',  ( 2.618611004132350143E-13, -9.184850993605148733E-15, 75.00000000000000000 ) ) ;
#168 = DESIGN_CONTEXT ( 'detailed design', #184, 'design' ) ;
#169 = FACE_OUTER_BOUND ( 'NONE', #15, .T. ) ;
#170 = EDGE_CURVE ( 'NONE', #87, #87, #222, .T. ) ;
#171 = CARTESIAN_POINT ( 'NONE',  ( 2.618611004132350143E-13, 2.499999999999994671, 75.00000000000000000 ) ) ;
#172 = CIRCLE ( 'NONE', #41, 1.300000000000000044 ) ;
#173 = VERTEX_POINT ( 'NONE', #79 ) ;
#174 = VERTEX_POINT ( 'NONE', #171 ) ;
#175 = EDGE_LOOP ( 'NONE', ( #204 ) ) ;
#176 = APPLICATION_CONTEXT ( 'configuration controlled 3d designs of mechanical parts and assemblies' ) ;
#177 = EDGE_LOOP ( 'NONE', ( #201 ) ) ;
#178 = FACE_OUTER_BOUND ( 'NONE', #120, .T. ) ;
#179 = CYLINDRICAL_SURFACE ( 'NONE', #132, 1.500000000000000000 ) ;
#180 = PERSON_AND_ORGANIZATION ( #158, #20 ) ;
#181 = CIRCLE ( 'NONE', #139, 2.500000000000003997 ) ;
#182 = DIRECTION ( 'NONE',  ( 4.275831445896958607E-31, 1.000000000000000000, 1.224646799147353207E-16 ) ) ;
#183 = DIRECTION ( 'NONE',  ( 4.275831445896958607E-31, 1.000000000000000000, 1.224646799147353454E-16 ) ) ;
#184 = APPLICATION_CONTEXT ( 'configuration controlled 3d designs of mechanical parts and assemblies' ) ;
#185 = LOCAL_TIME ( 11, 23, 8.000000000000000000, #39 ) ;
#186 = DIRECTION ( 'NONE',  ( -3.491481338843133355E-15, 1.224646799147353207E-16, -1.000000000000000000 ) ) ;
#187 = CARTESIAN_POINT ( 'NONE',  ( 1.396592535537253342E-14, 1.499999999999999556, 4.000000000000000000 ) ) ;
#188 = PERSON_AND_ORGANIZATION_ROLE ( 'design_owner' ) ;
#189 = AXIS2_PLACEMENT_3D ( 'NONE', #128, #30, #203 ) ;
#190 = AXIS2_PLACEMENT_3D ( 'NONE', #142, #59, #231 ) ;
#191 = CC_DESIGN_APPROVAL ( #61, ( #154 ) ) ;
#192 = VERTEX_POINT ( 'NONE', #22 ) ;
#193 = EDGE_LOOP ( 'NONE', ( #26 ) ) ;
#194 =( LENGTH_UNIT ( ) NAMED_UNIT ( * ) SI_UNIT ( .MILLI., .METRE. ) );
#195 = AXIS2_PLACEMENT_3D ( 'NONE', #49, #200, #236 ) ;
#196 = EDGE_CURVE ( 'NONE', #38, #38, #172, .T. ) ;
#197 = ADVANCED_FACE ( 'NONE', ( #220, #146 ), #57, .T. ) ;
#198 = CARTESIAN_POINT ( 'NONE',  ( 7.576514505289602536E-14, -2.657483554149757921E-15, 21.70000000000000995 ) ) ;
#199 = PERSON_AND_ORGANIZATION ( #158, #20 ) ;
#200 = DIRECTION ( 'NONE',  ( -3.491481338843133355E-15, 1.224646799147353207E-16, -1.000000000000000000 ) ) ;
#201 = ORIENTED_EDGE ( 'NONE', *, *, #101, .T. ) ;
#202 = PERSON_AND_ORGANIZATION ( #158, #20 ) ;
#203 = DIRECTION ( 'NONE',  ( 0.000000000000000000, -1.000000000000000000, 0.000000000000000000 ) ) ;
#204 = ORIENTED_EDGE ( 'NONE', *, *, #76, .F. ) ;
#205 = PERSON_AND_ORGANIZATION ( #158, #20 ) ;
#206 = CLOSED_SHELL ( 'NONE', ( #60, #47, #23, #197, #228, #216 ) ) ;
#207 = AXIS2_PLACEMENT_3D ( 'NONE', #113, #186, #97 ) ;
#208 = CALENDAR_DATE ( 2024, 12, 7 ) ;
#209 = CC_DESIGN_SECURITY_CLASSIFICATION ( #154, ( #2 ) ) ;
#210 = PERSON_AND_ORGANIZATION ( #158, #20 ) ;
#211 = EDGE_CURVE ( 'NONE', #174, #174, #181, .T. ) ;
#212 = CC_DESIGN_DATE_AND_TIME_ASSIGNMENT ( #88, #218, ( #13 ) ) ;
#213 = CARTESIAN_POINT ( 'NONE',  ( 6.982962677686266711E-14, 1.299999999999997602, 20.00000000000000000 ) ) ;
#214 = ORIENTED_EDGE ( 'NONE', *, *, #111, .F. ) ;
#215 = ORIENTED_EDGE ( 'NONE', *, *, #101, .F. ) ;
#216 = ADVANCED_FACE ( 'NONE', ( #155 ), #229, .F. ) ;
#217 = CARTESIAN_POINT ( 'NONE',  ( 2.618611004132350143E-13, -9.184850993605148733E-15, 75.00000000000000000 ) ) ;
#218 = DATE_TIME_ROLE ( 'creation_date' ) ;
#219 = APPROVAL_DATE_TIME ( #235, #122 ) ;
#220 = FACE_OUTER_BOUND ( 'NONE', #175, .T. ) ;
#221 = CARTESIAN_POINT ( 'NONE',  ( 1.396592535537253342E-14, -4.898587196589412829E-16, 4.000000000000000000 ) ) ;
#222 = CIRCLE ( 'NONE', #121, 1.500000000000000000 ) ;
#223 = DIRECTION ( 'NONE',  ( -3.491481338843133355E-15, 1.224646799147353207E-16, -1.000000000000000000 ) ) ;
#224 = DIRECTION ( 'NONE',  ( -3.491481338843133355E-15, 1.224646799147353207E-16, -1.000000000000000000 ) ) ;
#225 = CC_DESIGN_APPROVAL ( #122, ( #2 ) ) ;
#226 = FACE_OUTER_BOUND ( 'NONE', #44, .T. ) ;
#227 = EDGE_LOOP ( 'NONE', ( #141 ) ) ;
#228 = ADVANCED_FACE ( 'NONE', ( #169, #4 ), #27, .T. ) ;
#229 = PLANE ( 'NONE',  #207 ) ;
#230 = CIRCLE ( 'NONE', #8, 1.500000000000000000 ) ;
#231 = DIRECTION ( 'NONE',  ( 1.000000000000000000, 0.000000000000000000, 0.000000000000000000 ) ) ;
#232 = APPROVAL_STATUS ( 'not_yet_approved' ) ;
#233 = ORIENTED_EDGE ( 'NONE', *, *, #156, .T. ) ;
#234 = VERTEX_POINT ( 'NONE', #99 ) ;
#235 = DATE_AND_TIME ( #160, #108 ) ;
#236 = DIRECTION ( 'NONE',  ( 4.275831445896958607E-31, 1.000000000000000000, 1.224646799147353207E-16 ) ) ;
#237 = FACE_OUTER_BOUND ( 'NONE', #102, .T. ) ;
#238 = APPROVAL_PERSON_ORGANIZATION ( #210, #7, #3 ) ;
#239 = DIRECTION ( 'NONE',  ( 4.275831445896959482E-31, 1.000000000000000000, 1.224646799147353207E-16 ) ) ;
#240 = PLANE ( 'NONE',  #103 ) ;
#241 = SHAPE_DEFINITION_REPRESENTATION ( #157, #58 ) ;
#242 = CARTESIAN_POINT ( 'NONE',  ( -3.206873584422719393E-31, 1.124819836996393206E-32, -9.184850993605149670E-17 ) ) ;
#243 = CONICAL_SURFACE ( 'NONE', #189, 1.300000000000000044, 0.7853981633974432830 ) ;
ENDSEC;
END-ISO-10303-21;
