ISO-10303-21;
HEADER;
FILE_DESCRIPTION (( 'STEP AP203' ),
    '1' );
FILE_NAME ('970176.step',
    '2024-07-12T09:23:07',
    ( '' ),
    ( '' ),
    'SwSTEP 2.0',
    'SolidWorks 2022',
    '' );
FILE_SCHEMA (( 'CONFIG_CONTROL_DESIGN' ));
ENDSEC;

DATA;
#1 = CARTESIAN_POINT ( 'NONE',  ( 1.396592535537253342E-14, 1.499999999999999556, 4.000000000000000000 ) ) ;
#2 = ORIENTED_EDGE ( 'NONE', *, *, #112, .F. ) ;
#3 = COORDINATED_UNIVERSAL_TIME_OFFSET ( 1, 0, .AHEAD. ) ;
#4 = EDGE_LOOP ( 'NONE', ( #98 ) ) ;
#5 = CONICAL_SURFACE ( 'NONE', #206, 2.500000000000003997, 0.7853981633974479459 ) ;
#6 = AXIS2_PLACEMENT_3D ( 'NONE', #235, #139, #116 ) ;
#7 = PLANE ( 'NONE',  #177 ) ;
#8 = CC_DESIGN_PERSON_AND_ORGANIZATION_ASSIGNMENT ( #157, #63, ( #69 ) ) ;
#9 = PERSON ( 'UNSPECIFIED', 'UNSPECIFIED', 'UNSPECIFIED', ('UNSPECIFIED'), ('UNSPECIFIED'), ('UNSPECIFIED') ) ;
#10 = CARTESIAN_POINT ( 'NONE',  ( 1.396592535537253342E-14, -4.898587196589412829E-16, 4.000000000000000000 ) ) ;
#11 = CC_DESIGN_PERSON_AND_ORGANIZATION_ASSIGNMENT ( #18, #89, ( #51 ) ) ;
#12 = ADVANCED_FACE ( 'NONE', ( #153, #60 ), #125, .T. ) ;
#13 = COORDINATED_UNIVERSAL_TIME_OFFSET ( 1, 0, .AHEAD. ) ;
#14 = CC_DESIGN_DATE_AND_TIME_ASSIGNMENT ( #105, #229, ( #30 ) ) ;
#15 = DIRECTION ( 'NONE',  ( -3.491481338843133355E-15, 1.224646799147353207E-16, -1.000000000000000000 ) ) ;
#16 = PERSON_AND_ORGANIZATION ( #9, #175 ) ;
#17 = LOCAL_TIME ( 11, 23, 7.000000000000000000, #49 ) ;
#18 = PERSON_AND_ORGANIZATION ( #9, #175 ) ;
#19 = DIRECTION ( 'NONE',  ( -3.491481338843133355E-15, 1.224646799147353207E-16, -1.000000000000000000 ) ) ;
#20 = DIRECTION ( 'NONE',  ( -3.491481338843133355E-15, 1.224646799147353207E-16, -1.000000000000000000 ) ) ;
#21 = LOCAL_TIME ( 11, 23, 7.000000000000000000, #3 ) ;
#22 = VERTEX_POINT ( 'NONE', #241 ) ;
#23 = EDGE_CURVE ( 'NONE', #120, #120, #24, .T. ) ;
#24 = CIRCLE ( 'NONE', #202, 1.500000000000000000 ) ;
#25 = SHAPE_DEFINITION_REPRESENTATION ( #167, #149 ) ;
#26 = COORDINATED_UNIVERSAL_TIME_OFFSET ( 1, 0, .AHEAD. ) ;
#27 = PERSON_AND_ORGANIZATION_ROLE ( 'classification_officer' ) ;
#28 = ADVANCED_FACE ( 'NONE', ( #33, #182 ), #31, .T. ) ;
#29 = EDGE_LOOP ( 'NONE', ( #32 ) ) ;
#30 = SECURITY_CLASSIFICATION ( '', '', #41 ) ;
#31 = CYLINDRICAL_SURFACE ( 'NONE', #103, 1.500000000000000000 ) ;
#32 = ORIENTED_EDGE ( 'NONE', *, *, #237, .T. ) ;
#33 = FACE_OUTER_BOUND ( 'NONE', #148, .T. ) ;
#34 = CIRCLE ( 'NONE', #86, 1.299999999999999156 ) ;
#35 = ADVANCED_FACE ( 'NONE', ( #230 ), #7, .F. ) ;
#36 = CLOSED_SHELL ( 'NONE', ( #158, #198, #12, #68, #146, #35 ) ) ;
#37 = APPROVAL ( #83, 'UNSPECIFIED' ) ;
#38 = PERSON_AND_ORGANIZATION ( #9, #175 ) ;
#39 = DIRECTION ( 'NONE',  ( 3.491481338843133355E-15, -1.224646799147353207E-16, 1.000000000000000000 ) ) ;
#40 = FACE_OUTER_BOUND ( 'NONE', #178, .T. ) ;
#41 = SECURITY_CLASSIFICATION_LEVEL ( 'unclassified' ) ;
#42 = VERTEX_POINT ( 'NONE', #221 ) ;
#43 = MANIFOLD_SOLID_BREP ( 'Corps-Déplacer/Copier1[2]', #152 ) ;
#44 = DIRECTION ( 'NONE',  ( -3.491481338843133355E-15, 1.224646799147353207E-16, -1.000000000000000000 ) ) ;
#45 = PERSON_AND_ORGANIZATION ( #9, #175 ) ;
#46 = CC_DESIGN_APPROVAL ( #99, ( #174 ) ) ;
#47 = APPLICATION_PROTOCOL_DEFINITION ( 'international standard', 'config_control_design', 1994, #128 ) ;
#48 = PERSON_AND_ORGANIZATION ( #9, #175 ) ;
#49 = COORDINATED_UNIVERSAL_TIME_OFFSET ( 1, 0, .AHEAD. ) ;
#50 = EDGE_LOOP ( 'NONE', ( #65 ) ) ;
#51 = PRODUCT ( '970176', '970176', '', ( #187 ) ) ;
#52 = CARTESIAN_POINT ( 'NONE',  ( -3.206873584422719393E-31, 1.124819836996393206E-32, -9.184850993605149670E-17 ) ) ;
#53 = CARTESIAN_POINT ( 'NONE',  ( -6.413747168845438786E-31, 2.249639673992786412E-32, -1.836970198721029934E-16 ) ) ;
#54 = ADVANCED_FACE ( 'NONE', ( #67 ), #144, .T. ) ;
#55 = DIRECTION ( 'NONE',  ( 4.275831445896958607E-31, 1.000000000000000000, 1.224646799147353207E-16 ) ) ;
#56 = PLANE ( 'NONE',  #75 ) ;
#57 = AXIS2_PLACEMENT_3D ( 'NONE', #169, #150, #170 ) ;
#58 = CIRCLE ( 'NONE', #6, 2.500000000000003997 ) ;
#59 =( NAMED_UNIT ( * ) PLANE_ANGLE_UNIT ( ) SI_UNIT ( $, .RADIAN. ) );
#60 = FACE_BOUND ( 'NONE', #109, .T. ) ;
#61 = AXIS2_PLACEMENT_3D ( 'NONE', #140, #239, #121 ) ;
#62 = DIRECTION ( 'NONE',  ( 0.000000000000000000, 1.000000000000000000, 0.000000000000000000 ) ) ;
#63 = PERSON_AND_ORGANIZATION_ROLE ( 'design_supplier' ) ;
#64 = APPLICATION_PROTOCOL_DEFINITION ( 'international standard', 'config_control_design', 1994, #111 ) ;
#65 = ORIENTED_EDGE ( 'NONE', *, *, #71, .T. ) ;
#66 = EDGE_LOOP ( 'NONE', ( #127 ) ) ;
#67 = FACE_OUTER_BOUND ( 'NONE', #66, .T. ) ;
#68 = ADVANCED_FACE ( 'NONE', ( #130, #197 ), #123, .T. ) ;
#69 = PRODUCT_DEFINITION_FORMATION_WITH_SPECIFIED_SOURCE ( 'ANY', '', #51, .NOT_KNOWN. ) ;
#70 = AXIS2_PLACEMENT_3D ( 'NONE', #52, #44, #209 ) ;
#71 = EDGE_CURVE ( 'NONE', #222, #222, #114, .T. ) ;
#72 = DIRECTION ( 'NONE',  ( 4.275831445896959482E-31, 1.000000000000000000, 1.224646799147353207E-16 ) ) ;
#73 = FACE_BOUND ( 'NONE', #228, .T. ) ;
#74 = EDGE_CURVE ( 'NONE', #171, #171, #58, .T. ) ;
#75 = AXIS2_PLACEMENT_3D ( 'NONE', #200, #39, #115 ) ;
#76 = DIRECTION ( 'NONE',  ( 0.000000000000000000, 1.000000000000000000, 0.000000000000000000 ) ) ;
#77 = DIRECTION ( 'NONE',  ( 0.000000000000000000, 1.000000000000000000, 0.000000000000000000 ) ) ;
#78 = DATE_TIME_ROLE ( 'creation_date' ) ;
#79 = CALENDAR_DATE ( 2024, 12, 7 ) ;
#80 = AXIS2_PLACEMENT_3D ( 'NONE', #181, #176, #97 ) ;
#81 = DIRECTION ( 'NONE',  ( -3.491481338843133355E-15, 1.224646799147353207E-16, -1.000000000000000000 ) ) ;
#82 = FACE_OUTER_BOUND ( 'NONE', #225, .T. ) ;
#83 = APPROVAL_STATUS ( 'not_yet_approved' ) ;
#84 = CC_DESIGN_PERSON_AND_ORGANIZATION_ASSIGNMENT ( #38, #172, ( #174 ) ) ;
#85 = DIRECTION ( 'NONE',  ( 1.000000000000000000, 0.000000000000000000, 0.000000000000000000 ) ) ;
#86 = AXIS2_PLACEMENT_3D ( 'NONE', #154, #81, #210 ) ;
#87 = APPROVAL_ROLE ( '' ) ;
#88 = EDGE_LOOP ( 'NONE', ( #94 ) ) ;
#89 = PERSON_AND_ORGANIZATION_ROLE ( 'design_owner' ) ;
#90 = AXIS2_PLACEMENT_3D ( 'NONE', #10, #15, #76 ) ;
#91 = EDGE_LOOP ( 'NONE', ( #215 ) ) ;
#92 = APPROVAL_DATE_TIME ( #224, #133 ) ;
#93 = ORIENTED_EDGE ( 'NONE', *, *, #117, .T. ) ;
#94 = ORIENTED_EDGE ( 'NONE', *, *, #183, .T. ) ;
#95 = ORIENTED_EDGE ( 'NONE', *, *, #74, .F. ) ;
#96 = CC_DESIGN_PERSON_AND_ORGANIZATION_ASSIGNMENT ( #16, #27, ( #30 ) ) ;
#97 = DIRECTION ( 'NONE',  ( 0.000000000000000000, 1.000000000000000000, 0.000000000000000000 ) ) ;
#98 = ORIENTED_EDGE ( 'NONE', *, *, #237, .F. ) ;
#99 = APPROVAL ( #124, 'UNSPECIFIED' ) ;
#100 = FACE_OUTER_BOUND ( 'NONE', #211, .T. ) ;
#101 = DATE_AND_TIME ( #242, #134 ) ;
#102 = DIRECTION ( 'NONE',  ( 4.275831445896958607E-31, 1.000000000000000000, 1.224646799147353454E-16 ) ) ;
#103 = AXIS2_PLACEMENT_3D ( 'NONE', #131, #110, #72 ) ;
#104 = APPROVAL_ROLE ( '' ) ;
#105 = DATE_AND_TIME ( #145, #17 ) ;
#106 = CALENDAR_DATE ( 2024, 12, 7 ) ;
#107 = APPROVAL_STATUS ( 'not_yet_approved' ) ;
#108 = CC_DESIGN_PERSON_AND_ORGANIZATION_ASSIGNMENT ( #240, #151, ( #69 ) ) ;
#109 = EDGE_LOOP ( 'NONE', ( #2 ) ) ;
#110 = DIRECTION ( 'NONE',  ( -3.491481338843133355E-15, 1.224646799147353207E-16, -1.000000000000000000 ) ) ;
#111 = APPLICATION_CONTEXT ( 'configuration controlled 3d designs of mechanical parts and assemblies' ) ;
#112 = EDGE_CURVE ( 'NONE', #22, #22, #214, .T. ) ;
#113 = APPROVAL_PERSON_ORGANIZATION ( #48, #133, #87 ) ;
#114 = CIRCLE ( 'NONE', #80, 2.999999999999993339 ) ;
#115 = DIRECTION ( 'NONE',  ( -4.275831445896958607E-31, -1.000000000000000000, -1.224646799147353207E-16 ) ) ;
#116 = DIRECTION ( 'NONE',  ( 0.000000000000000000, 1.000000000000000000, 0.000000000000000000 ) ) ;
#117 = EDGE_CURVE ( 'NONE', #223, #223, #195, .T. ) ;
#118 =( LENGTH_UNIT ( ) NAMED_UNIT ( * ) SI_UNIT ( .MILLI., .METRE. ) );
#119 = CARTESIAN_POINT ( 'NONE',  ( 5.237222008264700033E-14, -1.836970198721029589E-15, 15.00000000000000000 ) ) ;
#120 = VERTEX_POINT ( 'NONE', #141 ) ;
#121 = DIRECTION ( 'NONE',  ( 4.275831445896958607E-31, 1.000000000000000000, 1.224646799147353207E-16 ) ) ;
#122 = PRODUCT_RELATED_PRODUCT_CATEGORY ( 'detail', '', ( #51 ) ) ;
#123 = CYLINDRICAL_SURFACE ( 'NONE', #219, 2.999999999999998224 ) ;
#124 = APPROVAL_STATUS ( 'not_yet_approved' ) ;
#125 = CONICAL_SURFACE ( 'NONE', #138, 1.299999999999999822, 0.7853981633974432830 ) ;
#126 = CARTESIAN_POINT ( 'NONE',  ( 2.601153597438134034E-13, -9.123618653647781159E-15, 74.50000000000000000 ) ) ;
#127 = ORIENTED_EDGE ( 'NONE', *, *, #23, .T. ) ;
#128 = APPLICATION_CONTEXT ( 'configuration controlled 3d designs of mechanical parts and assemblies' ) ;
#129 = DIRECTION ( 'NONE',  ( 0.000000000000000000, -1.000000000000000000, 0.000000000000000000 ) ) ;
#130 = FACE_OUTER_BOUND ( 'NONE', #91, .T. ) ;
#131 = CARTESIAN_POINT ( 'NONE',  ( 0.000000000000000000, 0.000000000000000000, 0.000000000000000000 ) ) ;
#132 = MANIFOLD_SOLID_BREP ( 'Corps-Déplacer/Copier1[1]', #36 ) ;
#133 = APPROVAL ( #107, 'UNSPECIFIED' ) ;
#134 = LOCAL_TIME ( 11, 23, 7.000000000000000000, #13 ) ;
#135 = CC_DESIGN_DATE_AND_TIME_ASSIGNMENT ( #101, #78, ( #174 ) ) ;
#136 = CC_DESIGN_APPROVAL ( #37, ( #69 ) ) ;
#137 = COORDINATED_UNIVERSAL_TIME_OFFSET ( 1, 0, .AHEAD. ) ;
#138 = AXIS2_PLACEMENT_3D ( 'NONE', #119, #188, #129 ) ;
#139 = DIRECTION ( 'NONE',  ( -3.491481338843133355E-15, 1.224646799147353207E-16, -1.000000000000000000 ) ) ;
#140 = CARTESIAN_POINT ( 'NONE',  ( 0.000000000000000000, 0.000000000000000000, 0.000000000000000000 ) ) ;
#141 = CARTESIAN_POINT ( 'NONE',  ( 0.000000000000000000, 1.500000000000000000, 0.000000000000000000 ) ) ;
#142 = APPROVAL_DATE_TIME ( #243, #37 ) ;
#143 = LOCAL_TIME ( 11, 23, 7.000000000000000000, #26 ) ;
#144 = PLANE ( 'NONE',  #70 ) ;
#145 = CALENDAR_DATE ( 2024, 12, 7 ) ;
#146 = ADVANCED_FACE ( 'NONE', ( #40, #73 ), #5, .T. ) ;
#147 = CC_DESIGN_SECURITY_CLASSIFICATION ( #30, ( #69 ) ) ;
#148 = EDGE_LOOP ( 'NONE', ( #93 ) ) ;
#149 = ADVANCED_BREP_SHAPE_REPRESENTATION ( '970176', ( #132, #43, #168 ), #196 ) ;
#150 = DIRECTION ( 'NONE',  ( -3.491481338843133355E-15, 1.224646799147353207E-16, -1.000000000000000000 ) ) ;
#151 = PERSON_AND_ORGANIZATION_ROLE ( 'creator' ) ;
#152 = CLOSED_SHELL ( 'NONE', ( #54, #28, #204 ) ) ;
#153 = FACE_OUTER_BOUND ( 'NONE', #50, .T. ) ;
#154 = CARTESIAN_POINT ( 'NONE',  ( 1.396592535537253342E-14, -4.898587196589412829E-16, 4.000000000000000000 ) ) ;
#155 = DIRECTION ( 'NONE',  ( 0.000000000000000000, 0.000000000000000000, 1.000000000000000000 ) ) ;
#156 = DIRECTION ( 'NONE',  ( 3.491481338843133355E-15, -1.224646799147353207E-16, 1.000000000000000000 ) ) ;
#157 = PERSON_AND_ORGANIZATION ( #9, #175 ) ;
#158 = ADVANCED_FACE ( 'NONE', ( #203 ), #56, .F. ) ;
#159 = CARTESIAN_POINT ( 'NONE',  ( 1.396592535537253342E-14, 1.124819836996392658E-32, 4.000000000000000000 ) ) ;
#160 = ORIENTED_EDGE ( 'NONE', *, *, #183, .F. ) ;
#161 = CARTESIAN_POINT ( 'NONE',  ( 0.000000000000000000, 0.000000000000000000, 0.000000000000000000 ) ) ;
#162 = DATE_AND_TIME ( #106, #143 ) ;
#163 = EDGE_LOOP ( 'NONE', ( #95 ) ) ;
#164 = DIRECTION ( 'NONE',  ( -3.491481338843133355E-15, 1.224646799147353207E-16, -1.000000000000000000 ) ) ;
#165 = ORIENTED_EDGE ( 'NONE', *, *, #23, .F. ) ;
#166 = CC_DESIGN_APPROVAL ( #133, ( #30 ) ) ;
#167 = PRODUCT_DEFINITION_SHAPE ( 'NONE', 'NONE',  #174 ) ;
#168 = AXIS2_PLACEMENT_3D ( 'NONE', #161, #155, #85 ) ;
#169 = CARTESIAN_POINT ( 'NONE',  ( 5.237222008264700033E-14, -1.836970198721029589E-15, 15.00000000000000000 ) ) ;
#170 = DIRECTION ( 'NONE',  ( 0.000000000000000000, 1.000000000000000000, 0.000000000000000000 ) ) ;
#171 = VERTEX_POINT ( 'NONE', #189 ) ;
#172 = PERSON_AND_ORGANIZATION_ROLE ( 'creator' ) ;
#173 = PLANE ( 'NONE',  #212 ) ;
#174 = PRODUCT_DEFINITION ( 'UNKNOWN', '', #69, #216 ) ;
#175 = ORGANIZATION ( 'UNSPECIFIED', 'UNSPECIFIED', '' ) ;
#176 = DIRECTION ( 'NONE',  ( -3.491481338843133355E-15, 1.224646799147353207E-16, -1.000000000000000000 ) ) ;
#177 = AXIS2_PLACEMENT_3D ( 'NONE', #199, #218, #55 ) ;
#178 = EDGE_LOOP ( 'NONE', ( #160 ) ) ;
#179 = UNCERTAINTY_MEASURE_WITH_UNIT (LENGTH_MEASURE( 1.000000000000000082E-05 ), #118, 'distance_accuracy_value', 'NONE');
#180 = ORIENTED_EDGE ( 'NONE', *, *, #74, .T. ) ;
#181 = CARTESIAN_POINT ( 'NONE',  ( 5.830773835868035859E-14, -2.045160154576080997E-15, 16.70000000000000995 ) ) ;
#182 = FACE_OUTER_BOUND ( 'NONE', #231, .T. ) ;
#183 = EDGE_CURVE ( 'NONE', #208, #208, #234, .T. ) ;
#184 = AXIS2_PLACEMENT_3D ( 'NONE', #126, #19, #62 ) ;
#185 = DIRECTION ( 'NONE',  ( 4.275831445896959482E-31, 1.000000000000000000, 1.224646799147353207E-16 ) ) ;
#186 = PERSON_AND_ORGANIZATION ( #9, #175 ) ;
#187 = MECHANICAL_CONTEXT ( 'NONE', #128, 'mechanical' ) ;
#188 = DIRECTION ( 'NONE',  ( 3.491481338843133355E-15, -1.224646799147353207E-16, 1.000000000000000000 ) ) ;
#189 = CARTESIAN_POINT ( 'NONE',  ( 2.618611004132350143E-13, 2.499999999999994671, 75.00000000000000000 ) ) ;
#190 = APPROVAL_ROLE ( '' ) ;
#191 =( NAMED_UNIT ( * ) SI_UNIT ( $, .STERADIAN. ) SOLID_ANGLE_UNIT ( ) );
#192 = CARTESIAN_POINT ( 'NONE',  ( 0.000000000000000000, 0.000000000000000000, 0.000000000000000000 ) ) ;
#193 = CARTESIAN_POINT ( 'NONE',  ( 2.601153597438134034E-13, 2.999999999999994671, 74.50000000000000000 ) ) ;
#194 = ORIENTED_EDGE ( 'NONE', *, *, #117, .F. ) ;
#195 = CIRCLE ( 'NONE', #90, 1.500000000000000000 ) ;
#196 =( GEOMETRIC_REPRESENTATION_CONTEXT ( 3 ) GLOBAL_UNCERTAINTY_ASSIGNED_CONTEXT ( ( #179 ) ) GLOBAL_UNIT_ASSIGNED_CONTEXT ( ( #118, #59, #191 ) ) REPRESENTATION_CONTEXT ( 'NONE', 'WORKASPACE' ) );
#197 = FACE_OUTER_BOUND ( 'NONE', #88, .T. ) ;
#198 = ADVANCED_FACE ( 'NONE', ( #100, #207 ), #226, .T. ) ;
#199 = CARTESIAN_POINT ( 'NONE',  ( 2.618611004132350143E-13, 1.874699728327311336E-32, 75.00000000000000000 ) ) ;
#200 = CARTESIAN_POINT ( 'NONE',  ( 1.396592535537253342E-14, 9.748438587302060766E-33, 4.000000000000000000 ) ) ;
#201 = APPROVAL_PERSON_ORGANIZATION ( #186, #37, #190 ) ;
#202 = AXIS2_PLACEMENT_3D ( 'NONE', #53, #164, #185 ) ;
#203 = FACE_OUTER_BOUND ( 'NONE', #29, .T. ) ;
#204 = ADVANCED_FACE ( 'NONE', ( #82 ), #173, .T. ) ;
#205 = DIRECTION ( 'NONE',  ( -4.275831445896958607E-31, -1.000000000000000000, -1.224646799147353207E-16 ) ) ;
#206 = AXIS2_PLACEMENT_3D ( 'NONE', #238, #236, #77 ) ;
#207 = FACE_OUTER_BOUND ( 'NONE', #4, .T. ) ;
#208 = VERTEX_POINT ( 'NONE', #193 ) ;
#209 = DIRECTION ( 'NONE',  ( 4.275831445896958607E-31, 1.000000000000000000, 1.224646799147353207E-16 ) ) ;
#210 = DIRECTION ( 'NONE',  ( 0.000000000000000000, 1.000000000000000000, 0.000000000000000000 ) ) ;
#211 = EDGE_LOOP ( 'NONE', ( #217 ) ) ;
#212 = AXIS2_PLACEMENT_3D ( 'NONE', #159, #156, #205 ) ;
#213 = CALENDAR_DATE ( 2024, 12, 7 ) ;
#214 = CIRCLE ( 'NONE', #57, 1.299999999999999822 ) ;
#215 = ORIENTED_EDGE ( 'NONE', *, *, #71, .F. ) ;
#216 = DESIGN_CONTEXT ( 'detailed design', #111, 'design' ) ;
#217 = ORIENTED_EDGE ( 'NONE', *, *, #112, .T. ) ;
#218 = DIRECTION ( 'NONE',  ( -3.491481338843133355E-15, 1.224646799147353207E-16, -1.000000000000000000 ) ) ;
#219 = AXIS2_PLACEMENT_3D ( 'NONE', #192, #20, #102 ) ;
#220 = CARTESIAN_POINT ( 'NONE',  ( 5.830773835868035859E-14, 2.999999999999991118, 16.70000000000000995 ) ) ;
#221 = CARTESIAN_POINT ( 'NONE',  ( 1.396592535537253342E-14, 1.299999999999998712, 4.000000000000000000 ) ) ;
#222 = VERTEX_POINT ( 'NONE', #220 ) ;
#223 = VERTEX_POINT ( 'NONE', #1 ) ;
#224 = DATE_AND_TIME ( #213, #21 ) ;
#225 = EDGE_LOOP ( 'NONE', ( #194 ) ) ;
#226 = CYLINDRICAL_SURFACE ( 'NONE', #61, 1.299999999999999600 ) ;
#227 = APPROVAL_PERSON_ORGANIZATION ( #45, #99, #104 ) ;
#228 = EDGE_LOOP ( 'NONE', ( #180 ) ) ;
#229 = DATE_TIME_ROLE ( 'classification_date' ) ;
#230 = FACE_OUTER_BOUND ( 'NONE', #163, .T. ) ;
#231 = EDGE_LOOP ( 'NONE', ( #165 ) ) ;
#232 = APPROVAL_DATE_TIME ( #162, #99 ) ;
#233 = LOCAL_TIME ( 11, 23, 7.000000000000000000, #137 ) ;
#234 = CIRCLE ( 'NONE', #184, 3.000000000000003997 ) ;
#235 = CARTESIAN_POINT ( 'NONE',  ( 2.618611004132350143E-13, -9.184850993605148733E-15, 75.00000000000000000 ) ) ;
#236 = DIRECTION ( 'NONE',  ( -3.491481338843133355E-15, 1.224646799147353207E-16, -1.000000000000000000 ) ) ;
#237 = EDGE_CURVE ( 'NONE', #42, #42, #34, .T. ) ;
#238 = CARTESIAN_POINT ( 'NONE',  ( 2.618611004132350143E-13, -9.184850993605148733E-15, 75.00000000000000000 ) ) ;
#239 = DIRECTION ( 'NONE',  ( -3.491481338843133355E-15, 1.224646799147353207E-16, -1.000000000000000000 ) ) ;
#240 = PERSON_AND_ORGANIZATION ( #9, #175 ) ;
#241 = CARTESIAN_POINT ( 'NONE',  ( 5.237222008264700033E-14, 1.299999999999998046, 15.00000000000000000 ) ) ;
#242 = CALENDAR_DATE ( 2024, 12, 7 ) ;
#243 = DATE_AND_TIME ( #79, #233 ) ;
ENDSEC;
END-ISO-10303-21;
