ISO-10303-21;
HEADER;
FILE_DESCRIPTION (( 'STEP AP203' ),
    '1' );
FILE_NAME ('970175.step',
    '2024-07-12T09:23:07',
    ( '' ),
    ( '' ),
    'SwSTEP 2.0',
    'SolidWorks 2022',
    '' );
FILE_SCHEMA (( 'CONFIG_CONTROL_DESIGN' ));
ENDSEC;

DATA;
#1 = COORDINATED_UNIVERSAL_TIME_OFFSET ( 1, 0, .AHEAD. ) ;
#2 = DIRECTION ( 'NONE',  ( 1.000000000000000000, 0.000000000000000000, 0.000000000000000000 ) ) ;
#3 = AXIS2_PLACEMENT_3D ( 'NONE', #160, #234, #212 ) ;
#4 = PERSON_AND_ORGANIZATION_ROLE ( 'design_owner' ) ;
#5 = LOCAL_TIME ( 11, 23, 7.000000000000000000, #94 ) ;
#6 = APPROVAL_ROLE ( '' ) ;
#7 = LOCAL_TIME ( 11, 23, 7.000000000000000000, #142 ) ;
#8 = FACE_OUTER_BOUND ( 'NONE', #23, .T. ) ;
#9 = DIRECTION ( 'NONE',  ( -3.491481338843133355E-15, 1.224646799147353207E-16, -1.000000000000000000 ) ) ;
#10 = EDGE_LOOP ( 'NONE', ( #121 ) ) ;
#11 = ADVANCED_FACE ( 'NONE', ( #25 ), #181, .F. ) ;
#12 = DIRECTION ( 'NONE',  ( 0.000000000000000000, -1.000000000000000000, 0.000000000000000000 ) ) ;
#13 = ORIENTED_EDGE ( 'NONE', *, *, #63, .T. ) ;
#14 = SHAPE_DEFINITION_REPRESENTATION ( #162, #68 ) ;
#15 = PERSON_AND_ORGANIZATION ( #96, #119 ) ;
#16 =( LENGTH_UNIT ( ) NAMED_UNIT ( * ) SI_UNIT ( .MILLI., .METRE. ) );
#17 = PERSON_AND_ORGANIZATION ( #96, #119 ) ;
#18 = AXIS2_PLACEMENT_3D ( 'NONE', #243, #75, #150 ) ;
#19 = VERTEX_POINT ( 'NONE', #82 ) ;
#20 =( NAMED_UNIT ( * ) PLANE_ANGLE_UNIT ( ) SI_UNIT ( $, .RADIAN. ) );
#21 = CC_DESIGN_PERSON_AND_ORGANIZATION_ASSIGNMENT ( #17, #4, ( #37 ) ) ;
#22 = ORIENTED_EDGE ( 'NONE', *, *, #197, .F. ) ;
#23 = EDGE_LOOP ( 'NONE', ( #42 ) ) ;
#24 = VERTEX_POINT ( 'NONE', #216 ) ;
#25 = FACE_OUTER_BOUND ( 'NONE', #130, .T. ) ;
#26 = AXIS2_PLACEMENT_3D ( 'NONE', #59, #35, #149 ) ;
#27 = CARTESIAN_POINT ( 'NONE',  ( 6.982962677686266711E-14, -2.449293598294706513E-15, 20.00000000000000000 ) ) ;
#28 = ADVANCED_FACE ( 'NONE', ( #107 ), #153, .F. ) ;
#29 = DIRECTION ( 'NONE',  ( 0.000000000000000000, 1.000000000000000000, 0.000000000000000000 ) ) ;
#30 = APPROVAL_STATUS ( 'not_yet_approved' ) ;
#31 = DIRECTION ( 'NONE',  ( -4.275831445896958607E-31, -1.000000000000000000, -1.224646799147353207E-16 ) ) ;
#32 = FACE_OUTER_BOUND ( 'NONE', #80, .T. ) ;
#33 = PERSON_AND_ORGANIZATION_ROLE ( 'classification_officer' ) ;
#34 = DIRECTION ( 'NONE',  ( -3.491481338843133355E-15, 1.224646799147353207E-16, -1.000000000000000000 ) ) ;
#35 = DIRECTION ( 'NONE',  ( -3.491481338843133355E-15, 1.224646799147353207E-16, -1.000000000000000000 ) ) ;
#36 = CARTESIAN_POINT ( 'NONE',  ( 6.982962677686266711E-14, 0.7999999999999976019, 20.00000000000000000 ) ) ;
#37 = PRODUCT ( '970175', '970175', '', ( #237 ) ) ;
#38 = VERTEX_POINT ( 'NONE', #140 ) ;
#39 = EDGE_LOOP ( 'NONE', ( #64 ) ) ;
#40 = APPROVAL_PERSON_ORGANIZATION ( #87, #230, #6 ) ;
#41 = MANIFOLD_SOLID_BREP ( 'Corps-Déplacer/Copier1[1]', #137 ) ;
#42 = ORIENTED_EDGE ( 'NONE', *, *, #215, .T. ) ;
#43 = CALENDAR_DATE ( 2024, 12, 7 ) ;
#44 = MANIFOLD_SOLID_BREP ( 'Corps-Déplacer/Copier1[2]', #155 ) ;
#45 = CC_DESIGN_PERSON_AND_ORGANIZATION_ASSIGNMENT ( #203, #33, ( #116 ) ) ;
#46 = CIRCLE ( 'NONE', #26, 1.000000000000000000 ) ;
#47 = CC_DESIGN_SECURITY_CLASSIFICATION ( #116, ( #72 ) ) ;
#48 = APPROVAL_STATUS ( 'not_yet_approved' ) ;
#49 = ADVANCED_FACE ( 'NONE', ( #32 ), #199, .T. ) ;
#50 = AXIS2_PLACEMENT_3D ( 'NONE', #228, #90, #12 ) ;
#51 = APPROVAL_PERSON_ORGANIZATION ( #136, #190, #152 ) ;
#52 = CARTESIAN_POINT ( 'NONE',  ( 2.618611004132350143E-13, -9.184850993605148733E-15, 75.00000000000000000 ) ) ;
#53 = ORIENTED_EDGE ( 'NONE', *, *, #215, .F. ) ;
#54 = DESIGN_CONTEXT ( 'detailed design', #187, 'design' ) ;
#55 = CARTESIAN_POINT ( 'NONE',  ( 1.047444401652940007E-14, 7.498798913309281197E-33, 3.000000000000000000 ) ) ;
#56 = CIRCLE ( 'NONE', #184, 2.500000000000003997 ) ;
#57 = CARTESIAN_POINT ( 'NONE',  ( 1.047444401652940007E-14, -3.673940397442059868E-16, 3.000000000000000000 ) ) ;
#58 = PERSON_AND_ORGANIZATION_ROLE ( 'design_supplier' ) ;
#59 = CARTESIAN_POINT ( 'NONE',  ( 1.047444401652940007E-14, -3.673940397442059868E-16, 3.000000000000000000 ) ) ;
#60 = DATE_TIME_ROLE ( 'classification_date' ) ;
#61 = CC_DESIGN_DATE_AND_TIME_ASSIGNMENT ( #165, #200, ( #231 ) ) ;
#62 = CARTESIAN_POINT ( 'NONE',  ( 0.000000000000000000, 0.000000000000000000, 0.000000000000000000 ) ) ;
#63 = EDGE_CURVE ( 'NONE', #19, #19, #193, .T. ) ;
#64 = ORIENTED_EDGE ( 'NONE', *, *, #113, .F. ) ;
#65 = APPLICATION_PROTOCOL_DEFINITION ( 'international standard', 'config_control_design', 1994, #187 ) ;
#66 = PERSON_AND_ORGANIZATION ( #96, #119 ) ;
#67 = COORDINATED_UNIVERSAL_TIME_OFFSET ( 1, 0, .AHEAD. ) ;
#68 = ADVANCED_BREP_SHAPE_REPRESENTATION ( '970175', ( #41, #44, #207 ), #125 ) ;
#69 = DIRECTION ( 'NONE',  ( 4.275831445896958607E-31, 1.000000000000000000, 1.224646799147353207E-16 ) ) ;
#70 = CYLINDRICAL_SURFACE ( 'NONE', #18, 2.999999999999998668 ) ;
#71 = APPROVAL_DATE_TIME ( #209, #190 ) ;
#72 = PRODUCT_DEFINITION_FORMATION_WITH_SPECIFIED_SOURCE ( 'ANY', '', #37, .NOT_KNOWN. ) ;
#73 = EDGE_LOOP ( 'NONE', ( #229 ) ) ;
#74 = FACE_BOUND ( 'NONE', #235, .T. ) ;
#75 = DIRECTION ( 'NONE',  ( -3.491481338843133355E-15, 1.224646799147353207E-16, -1.000000000000000000 ) ) ;
#76 = FACE_OUTER_BOUND ( 'NONE', #144, .T. ) ;
#77 = CONICAL_SURFACE ( 'NONE', #50, 0.8000000000000001554, 0.7853981633974428389 ) ;
#78 = EDGE_CURVE ( 'NONE', #24, #24, #233, .T. ) ;
#79 = CYLINDRICAL_SURFACE ( 'NONE', #227, 1.000000000000000000 ) ;
#80 = EDGE_LOOP ( 'NONE', ( #22 ) ) ;
#81 = VERTEX_POINT ( 'NONE', #176 ) ;
#82 = CARTESIAN_POINT ( 'NONE',  ( 1.047444401652940007E-14, 0.7999999999999986011, 3.000000000000000000 ) ) ;
#83 = EDGE_LOOP ( 'NONE', ( #192 ) ) ;
#84 = EDGE_CURVE ( 'NONE', #120, #120, #122, .T. ) ;
#85 = LOCAL_TIME ( 11, 23, 7.000000000000000000, #67 ) ;
#86 = DATE_AND_TIME ( #103, #7 ) ;
#87 = PERSON_AND_ORGANIZATION ( #96, #119 ) ;
#88 = AXIS2_PLACEMENT_3D ( 'NONE', #55, #183, #169 ) ;
#89 = CONICAL_SURFACE ( 'NONE', #139, 2.500000000000003997, 0.7853981633974479459 ) ;
#90 = DIRECTION ( 'NONE',  ( 3.491481338843133355E-15, -1.224646799147353207E-16, 1.000000000000000000 ) ) ;
#91 = ORIENTED_EDGE ( 'NONE', *, *, #84, .F. ) ;
#92 = DIRECTION ( 'NONE',  ( -3.491481338843133355E-15, 1.224646799147353207E-16, -1.000000000000000000 ) ) ;
#93 = EDGE_CURVE ( 'NONE', #100, #100, #132, .T. ) ;
#94 = COORDINATED_UNIVERSAL_TIME_OFFSET ( 1, 0, .AHEAD. ) ;
#95 = APPROVAL_PERSON_ORGANIZATION ( #161, #180, #196 ) ;
#96 = PERSON ( 'UNSPECIFIED', 'UNSPECIFIED', 'UNSPECIFIED', ('UNSPECIFIED'), ('UNSPECIFIED'), ('UNSPECIFIED') ) ;
#97 = FACE_OUTER_BOUND ( 'NONE', #177, .T. ) ;
#98 =( NAMED_UNIT ( * ) SI_UNIT ( $, .STERADIAN. ) SOLID_ANGLE_UNIT ( ) );
#99 = VERTEX_POINT ( 'NONE', #118 ) ;
#100 = VERTEX_POINT ( 'NONE', #36 ) ;
#101 = ADVANCED_FACE ( 'NONE', ( #240, #8 ), #70, .T. ) ;
#102 = ORIENTED_EDGE ( 'NONE', *, *, #113, .T. ) ;
#103 = CALENDAR_DATE ( 2024, 12, 7 ) ;
#104 = AXIS2_PLACEMENT_3D ( 'NONE', #133, #92, #221 ) ;
#105 = COORDINATED_UNIVERSAL_TIME_OFFSET ( 1, 0, .AHEAD. ) ;
#106 = PRODUCT_RELATED_PRODUCT_CATEGORY ( 'detail', '', ( #37 ) ) ;
#107 = FACE_OUTER_BOUND ( 'NONE', #39, .T. ) ;
#108 = FACE_OUTER_BOUND ( 'NONE', #10, .T. ) ;
#109 = CC_DESIGN_PERSON_AND_ORGANIZATION_ASSIGNMENT ( #219, #124, ( #72 ) ) ;
#110 = AXIS2_PLACEMENT_3D ( 'NONE', #224, #185, #129 ) ;
#111 = DIRECTION ( 'NONE',  ( -3.491481338843133355E-15, 1.224646799147353207E-16, -1.000000000000000000 ) ) ;
#112 = CARTESIAN_POINT ( 'NONE',  ( 1.047444401652940007E-14, 5.999039130647417431E-33, 3.000000000000000000 ) ) ;
#113 = EDGE_CURVE ( 'NONE', #99, #99, #56, .T. ) ;
#114 = DIRECTION ( 'NONE',  ( 4.275831445896958607E-31, 1.000000000000000000, 1.224646799147353207E-16 ) ) ;
#115 = DIRECTION ( 'NONE',  ( -3.491481338843133355E-15, 1.224646799147353207E-16, -1.000000000000000000 ) ) ;
#116 = SECURITY_CLASSIFICATION ( '', '', #134 ) ;
#117 = CARTESIAN_POINT ( 'NONE',  ( 8.552847072295026068E-47, 1.000000000000000000, 0.000000000000000000 ) ) ;
#118 = CARTESIAN_POINT ( 'NONE',  ( 2.618611004132350143E-13, 2.499999999999994671, 75.00000000000000000 ) ) ;
#119 = ORGANIZATION ( 'UNSPECIFIED', 'UNSPECIFIED', '' ) ;
#120 = VERTEX_POINT ( 'NONE', #117 ) ;
#121 = ORIENTED_EDGE ( 'NONE', *, *, #78, .T. ) ;
#122 = CIRCLE ( 'NONE', #104, 1.000000000000000000 ) ;
#123 = CC_DESIGN_APPROVAL ( #190, ( #116 ) ) ;
#124 = PERSON_AND_ORGANIZATION_ROLE ( 'creator' ) ;
#125 =( GEOMETRIC_REPRESENTATION_CONTEXT ( 3 ) GLOBAL_UNCERTAINTY_ASSIGNED_CONTEXT ( ( #226 ) ) GLOBAL_UNIT_ASSIGNED_CONTEXT ( ( #16, #20, #98 ) ) REPRESENTATION_CONTEXT ( 'NONE', 'WORKASPACE' ) );
#126 = ORIENTED_EDGE ( 'NONE', *, *, #63, .F. ) ;
#127 = PERSON_AND_ORGANIZATION_ROLE ( 'creator' ) ;
#128 = DIRECTION ( 'NONE',  ( 0.000000000000000000, 1.000000000000000000, 0.000000000000000000 ) ) ;
#129 = DIRECTION ( 'NONE',  ( 4.275831445896958607E-31, 1.000000000000000000, 1.224646799147353207E-16 ) ) ;
#130 = EDGE_LOOP ( 'NONE', ( #13 ) ) ;
#131 = DIRECTION ( 'NONE',  ( -3.491481338843133355E-15, 1.224646799147353207E-16, -1.000000000000000000 ) ) ;
#132 = CIRCLE ( 'NONE', #141, 0.8000000000000001554 ) ;
#133 = CARTESIAN_POINT ( 'NONE',  ( -4.275831445896957731E-31, 1.499759782661857608E-32, -1.224646799147353207E-16 ) ) ;
#134 = SECURITY_CLASSIFICATION_LEVEL ( 'unclassified' ) ;
#135 = CYLINDRICAL_SURFACE ( 'NONE', #172, 0.7999999999999994893 ) ;
#136 = PERSON_AND_ORGANIZATION ( #96, #119 ) ;
#137 = CLOSED_SHELL ( 'NONE', ( #11, #198, #159, #101, #175, #28 ) ) ;
#138 = EDGE_LOOP ( 'NONE', ( #53 ) ) ;
#139 = AXIS2_PLACEMENT_3D ( 'NONE', #225, #115, #220 ) ;
#140 = CARTESIAN_POINT ( 'NONE',  ( 1.047444401652940007E-14, 0.9999999999999995559, 3.000000000000000000 ) ) ;
#141 = AXIS2_PLACEMENT_3D ( 'NONE', #27, #167, #151 ) ;
#142 = COORDINATED_UNIVERSAL_TIME_OFFSET ( 1, 0, .AHEAD. ) ;
#143 = AXIS2_PLACEMENT_3D ( 'NONE', #57, #148, #128 ) ;
#144 = EDGE_LOOP ( 'NONE', ( #213 ) ) ;
#145 = APPROVAL_STATUS ( 'not_yet_approved' ) ;
#146 = APPLICATION_CONTEXT ( 'configuration controlled 3d designs of mechanical parts and assemblies' ) ;
#147 = APPROVAL_DATE_TIME ( #238, #230 ) ;
#148 = DIRECTION ( 'NONE',  ( -3.491481338843133355E-15, 1.224646799147353207E-16, -1.000000000000000000 ) ) ;
#149 = DIRECTION ( 'NONE',  ( 0.000000000000000000, 1.000000000000000000, 0.000000000000000000 ) ) ;
#150 = DIRECTION ( 'NONE',  ( 4.275831445896958607E-31, 1.000000000000000000, 1.224646799147353454E-16 ) ) ;
#151 = DIRECTION ( 'NONE',  ( 0.000000000000000000, 1.000000000000000000, 0.000000000000000000 ) ) ;
#152 = APPROVAL_ROLE ( '' ) ;
#153 = PLANE ( 'NONE',  #163 ) ;
#154 = FACE_BOUND ( 'NONE', #178, .T. ) ;
#155 = CLOSED_SHELL ( 'NONE', ( #166, #211, #49 ) ) ;
#156 = LOCAL_TIME ( 11, 23, 7.000000000000000000, #105 ) ;
#157 = CARTESIAN_POINT ( 'NONE',  ( 0.000000000000000000, 0.000000000000000000, 0.000000000000000000 ) ) ;
#158 = CC_DESIGN_PERSON_AND_ORGANIZATION_ASSIGNMENT ( #66, #127, ( #231 ) ) ;
#159 = ADVANCED_FACE ( 'NONE', ( #108, #154 ), #77, .T. ) ;
#160 = CARTESIAN_POINT ( 'NONE',  ( 2.601153597438134034E-13, -9.123618653647781159E-15, 74.50000000000000000 ) ) ;
#161 = PERSON_AND_ORGANIZATION ( #96, #119 ) ;
#162 = PRODUCT_DEFINITION_SHAPE ( 'NONE', 'NONE',  #231 ) ;
#163 = AXIS2_PLACEMENT_3D ( 'NONE', #239, #111, #69 ) ;
#164 = AXIS2_PLACEMENT_3D ( 'NONE', #201, #9, #242 ) ;
#165 = DATE_AND_TIME ( #43, #156 ) ;
#166 = ADVANCED_FACE ( 'NONE', ( #168 ), #241, .T. ) ;
#167 = DIRECTION ( 'NONE',  ( -3.491481338843133355E-15, 1.224646799147353207E-16, -1.000000000000000000 ) ) ;
#168 = FACE_OUTER_BOUND ( 'NONE', #73, .T. ) ;
#169 = DIRECTION ( 'NONE',  ( -4.275831445896958607E-31, -1.000000000000000000, -1.224646799147353207E-16 ) ) ;
#170 = CALENDAR_DATE ( 2024, 12, 7 ) ;
#171 = DIRECTION ( 'NONE',  ( 3.491481338843133355E-15, -1.224646799147353207E-16, 1.000000000000000000 ) ) ;
#172 = AXIS2_PLACEMENT_3D ( 'NONE', #189, #34, #114 ) ;
#173 = FACE_OUTER_BOUND ( 'NONE', #195, .T. ) ;
#174 = DIRECTION ( 'NONE',  ( 4.275831445896958607E-31, 1.000000000000000000, 1.224646799147353207E-16 ) ) ;
#175 = ADVANCED_FACE ( 'NONE', ( #204, #74 ), #89, .T. ) ;
#176 = CARTESIAN_POINT ( 'NONE',  ( 2.601153597438134034E-13, 2.999999999999994671, 74.50000000000000000 ) ) ;
#177 = EDGE_LOOP ( 'NONE', ( #126 ) ) ;
#178 = EDGE_LOOP ( 'NONE', ( #202 ) ) ;
#179 = LOCAL_TIME ( 11, 23, 7.000000000000000000, #1 ) ;
#180 = APPROVAL ( #145, 'UNSPECIFIED' ) ;
#181 = PLANE ( 'NONE',  #206 ) ;
#182 = CC_DESIGN_DATE_AND_TIME_ASSIGNMENT ( #208, #60, ( #116 ) ) ;
#183 = DIRECTION ( 'NONE',  ( 3.491481338843133355E-15, -1.224646799147353207E-16, 1.000000000000000000 ) ) ;
#184 = AXIS2_PLACEMENT_3D ( 'NONE', #52, #131, #29 ) ;
#185 = DIRECTION ( 'NONE',  ( -3.491481338843133355E-15, 1.224646799147353207E-16, -1.000000000000000000 ) ) ;
#186 = FACE_OUTER_BOUND ( 'NONE', #205, .T. ) ;
#187 = APPLICATION_CONTEXT ( 'configuration controlled 3d designs of mechanical parts and assemblies' ) ;
#188 = CC_DESIGN_APPROVAL ( #180, ( #231 ) ) ;
#189 = CARTESIAN_POINT ( 'NONE',  ( 0.000000000000000000, 0.000000000000000000, 0.000000000000000000 ) ) ;
#190 = APPROVAL ( #30, 'UNSPECIFIED' ) ;
#191 = DIRECTION ( 'NONE',  ( 0.000000000000000000, 0.000000000000000000, 1.000000000000000000 ) ) ;
#192 = ORIENTED_EDGE ( 'NONE', *, *, #78, .F. ) ;
#193 = CIRCLE ( 'NONE', #143, 0.7999999999999989342 ) ;
#194 = APPLICATION_PROTOCOL_DEFINITION ( 'international standard', 'config_control_design', 1994, #146 ) ;
#195 = EDGE_LOOP ( 'NONE', ( #91 ) ) ;
#196 = APPROVAL_ROLE ( '' ) ;
#197 = EDGE_CURVE ( 'NONE', #38, #38, #46, .T. ) ;
#198 = ADVANCED_FACE ( 'NONE', ( #76, #97 ), #135, .T. ) ;
#199 = PLANE ( 'NONE',  #88 ) ;
#200 = DATE_TIME_ROLE ( 'creation_date' ) ;
#201 = CARTESIAN_POINT ( 'NONE',  ( 7.751088572231763622E-14, -2.718715894107126679E-15, 22.20000000000001705 ) ) ;
#202 = ORIENTED_EDGE ( 'NONE', *, *, #93, .F. ) ;
#203 = PERSON_AND_ORGANIZATION ( #96, #119 ) ;
#204 = FACE_OUTER_BOUND ( 'NONE', #138, .T. ) ;
#205 = EDGE_LOOP ( 'NONE', ( #214 ) ) ;
#206 = AXIS2_PLACEMENT_3D ( 'NONE', #112, #171, #31 ) ;
#207 = AXIS2_PLACEMENT_3D ( 'NONE', #62, #191, #2 ) ;
#208 = DATE_AND_TIME ( #223, #5 ) ;
#209 = DATE_AND_TIME ( #170, #179 ) ;
#210 = APPROVAL_DATE_TIME ( #86, #180 ) ;
#211 = ADVANCED_FACE ( 'NONE', ( #186, #173 ), #79, .T. ) ;
#212 = DIRECTION ( 'NONE',  ( 0.000000000000000000, 1.000000000000000000, 0.000000000000000000 ) ) ;
#213 = ORIENTED_EDGE ( 'NONE', *, *, #93, .T. ) ;
#214 = ORIENTED_EDGE ( 'NONE', *, *, #197, .T. ) ;
#215 = EDGE_CURVE ( 'NONE', #81, #81, #236, .T. ) ;
#216 = CARTESIAN_POINT ( 'NONE',  ( 7.751088572231763622E-14, 2.999999999999991118, 22.20000000000001705 ) ) ;
#217 = CC_DESIGN_PERSON_AND_ORGANIZATION_ASSIGNMENT ( #15, #58, ( #72 ) ) ;
#218 = CALENDAR_DATE ( 2024, 12, 7 ) ;
#219 = PERSON_AND_ORGANIZATION ( #96, #119 ) ;
#220 = DIRECTION ( 'NONE',  ( 0.000000000000000000, 1.000000000000000000, 0.000000000000000000 ) ) ;
#221 = DIRECTION ( 'NONE',  ( 4.275831445896958607E-31, 1.000000000000000000, 1.224646799147353207E-16 ) ) ;
#222 = CC_DESIGN_APPROVAL ( #230, ( #72 ) ) ;
#223 = CALENDAR_DATE ( 2024, 12, 7 ) ;
#224 = CARTESIAN_POINT ( 'NONE',  ( -2.137915722948478865E-31, 7.498798913309288039E-33, -6.123233995736766036E-17 ) ) ;
#225 = CARTESIAN_POINT ( 'NONE',  ( 2.618611004132350143E-13, -9.184850993605148733E-15, 75.00000000000000000 ) ) ;
#226 = UNCERTAINTY_MEASURE_WITH_UNIT (LENGTH_MEASURE( 1.000000000000000082E-05 ), #16, 'distance_accuracy_value', 'NONE');
#227 = AXIS2_PLACEMENT_3D ( 'NONE', #157, #232, #174 ) ;
#228 = CARTESIAN_POINT ( 'NONE',  ( 6.982962677686266711E-14, -2.449293598294706513E-15, 20.00000000000000000 ) ) ;
#229 = ORIENTED_EDGE ( 'NONE', *, *, #84, .T. ) ;
#230 = APPROVAL ( #48, 'UNSPECIFIED' ) ;
#231 = PRODUCT_DEFINITION ( 'UNKNOWN', '', #72, #54 ) ;
#232 = DIRECTION ( 'NONE',  ( -3.491481338843133355E-15, 1.224646799147353207E-16, -1.000000000000000000 ) ) ;
#233 = CIRCLE ( 'NONE', #164, 2.999999999999993339 ) ;
#234 = DIRECTION ( 'NONE',  ( -3.491481338843133355E-15, 1.224646799147353207E-16, -1.000000000000000000 ) ) ;
#235 = EDGE_LOOP ( 'NONE', ( #102 ) ) ;
#236 = CIRCLE ( 'NONE', #3, 3.000000000000003997 ) ;
#237 = MECHANICAL_CONTEXT ( 'NONE', #146, 'mechanical' ) ;
#238 = DATE_AND_TIME ( #218, #85 ) ;
#239 = CARTESIAN_POINT ( 'NONE',  ( 2.618611004132350143E-13, 1.874699728327311336E-32, 75.00000000000000000 ) ) ;
#240 = FACE_OUTER_BOUND ( 'NONE', #83, .T. ) ;
#241 = PLANE ( 'NONE',  #110 ) ;
#242 = DIRECTION ( 'NONE',  ( 0.000000000000000000, 1.000000000000000000, 0.000000000000000000 ) ) ;
#243 = CARTESIAN_POINT ( 'NONE',  ( 0.000000000000000000, 0.000000000000000000, 0.000000000000000000 ) ) ;
ENDSEC;
END-ISO-10303-21;
