ISO-10303-21;
HEADER;
FILE_DESCRIPTION (( 'STEP AP203' ),
    '1' );
FILE_NAME ('970166.step',
    '2024-07-12T09:23:06',
    ( '' ),
    ( '' ),
    'SwSTEP 2.0',
    'SolidWorks 2022',
    '' );
FILE_SCHEMA (( 'CONFIG_CONTROL_DESIGN' ));
ENDSEC;

DATA;
#1 = DIRECTION ( 'NONE',  ( 3.491481338843133355E-15, -1.224646799147353207E-16, 1.000000000000000000 ) ) ;
#2 = PLANE ( 'NONE',  #35 ) ;
#3 = DIRECTION ( 'NONE',  ( 4.275831445896958607E-31, 1.000000000000000000, 1.224646799147353207E-16 ) ) ;
#4 = ORIENTED_EDGE ( 'NONE', *, *, #61, .F. ) ;
#5 = CONICAL_SURFACE ( 'NONE', #45, 2.250000000000000444, 0.7853981633974445042 ) ;
#6 = VERTEX_POINT ( 'NONE', #59 ) ;
#7 = CC_DESIGN_PERSON_AND_ORGANIZATION_ASSIGNMENT ( #147, #223, ( #185 ) ) ;
#8 = EDGE_CURVE ( 'NONE', #109, #109, #118, .T. ) ;
#9 = EDGE_LOOP ( 'NONE', ( #159 ) ) ;
#10 = DIRECTION ( 'NONE',  ( 0.000000000000000000, 0.000000000000000000, 1.000000000000000000 ) ) ;
#11 = CC_DESIGN_APPROVAL ( #125, ( #83 ) ) ;
#12 =( LENGTH_UNIT ( ) NAMED_UNIT ( * ) SI_UNIT ( .MILLI., .METRE. ) );
#13 = PERSON_AND_ORGANIZATION_ROLE ( 'design_supplier' ) ;
#14 = EDGE_CURVE ( 'NONE', #176, #176, #71, .T. ) ;
#15 = ORIENTED_EDGE ( 'NONE', *, *, #61, .T. ) ;
#16 = EDGE_CURVE ( 'NONE', #6, #6, #44, .T. ) ;
#17 = FACE_OUTER_BOUND ( 'NONE', #218, .T. ) ;
#18 = DIRECTION ( 'NONE',  ( -3.491481338843133355E-15, 1.224646799147353207E-16, -1.000000000000000000 ) ) ;
#19 = CARTESIAN_POINT ( 'NONE',  ( 1.222018468595096801E-13, -4.286263797015736496E-15, 35.00000000000000000 ) ) ;
#20 =( NAMED_UNIT ( * ) SI_UNIT ( $, .STERADIAN. ) SOLID_ANGLE_UNIT ( ) );
#21 = CARTESIAN_POINT ( 'NONE',  ( -1.068957861474239564E-30, 3.749399456654644020E-32, -3.061616997868383141E-16 ) ) ;
#22 = ADVANCED_FACE ( 'NONE', ( #184, #82 ), #87, .T. ) ;
#23 = AXIS2_PLACEMENT_3D ( 'NONE', #73, #148, #137 ) ;
#24 = DIRECTION ( 'NONE',  ( -3.491481338843133355E-15, 1.224646799147353207E-16, -1.000000000000000000 ) ) ;
#25 = PERSON ( 'UNSPECIFIED', 'UNSPECIFIED', 'UNSPECIFIED', ('UNSPECIFIED'), ('UNSPECIFIED'), ('UNSPECIFIED') ) ;
#26 = PERSON_AND_ORGANIZATION ( #25, #177 ) ;
#27 = DATE_AND_TIME ( #219, #205 ) ;
#28 = LOCAL_TIME ( 11, 23, 6.000000000000000000, #180 ) ;
#29 = CARTESIAN_POINT ( 'NONE',  ( 1.248204578636420459E-13, -4.378112306951787857E-15, 35.75000000000000711 ) ) ;
#30 = CLOSED_SHELL ( 'NONE', ( #235, #22, #57, #55, #134, #173 ) ) ;
#31 = FACE_OUTER_BOUND ( 'NONE', #193, .T. ) ;
#32 = VERTEX_POINT ( 'NONE', #89 ) ;
#33 = CARTESIAN_POINT ( 'NONE',  ( 2.269462870248036681E-14, 1.874699728327320915E-32, 6.500000000000000000 ) ) ;
#34 = COORDINATED_UNIVERSAL_TIME_OFFSET ( 1, 0, .AHEAD. ) ;
#35 = AXIS2_PLACEMENT_3D ( 'NONE', #53, #225, #3 ) ;
#36 = MANIFOLD_SOLID_BREP ( 'Corps-Déplacer/Copier1[2]', #76 ) ;
#37 = DIRECTION ( 'NONE',  ( 0.000000000000000000, 1.000000000000000000, 0.000000000000000000 ) ) ;
#38 = CARTESIAN_POINT ( 'NONE',  ( 2.618611004132350143E-13, -9.184850993605148733E-15, 75.00000000000000000 ) ) ;
#39 =( NAMED_UNIT ( * ) PLANE_ANGLE_UNIT ( ) SI_UNIT ( $, .RADIAN. ) );
#40 = ADVANCED_FACE ( 'NONE', ( #240 ), #131, .T. ) ;
#41 = APPROVAL_PERSON_ORGANIZATION ( #92, #125, #88 ) ;
#42 = DATE_TIME_ROLE ( 'creation_date' ) ;
#43 = PRODUCT_DEFINITION ( 'UNKNOWN', '', #185, #194 ) ;
#44 = CIRCLE ( 'NONE', #174, 2.999999999999995115 ) ;
#45 = AXIS2_PLACEMENT_3D ( 'NONE', #19, #1, #96 ) ;
#46 = DIRECTION ( 'NONE',  ( 0.000000000000000000, 1.000000000000000000, 0.000000000000000000 ) ) ;
#47 = DIRECTION ( 'NONE',  ( -4.275831445896958607E-31, -1.000000000000000000, -1.224646799147353207E-16 ) ) ;
#48 = APPROVAL ( #140, 'UNSPECIFIED' ) ;
#49 = FACE_OUTER_BOUND ( 'NONE', #166, .T. ) ;
#50 = CARTESIAN_POINT ( 'NONE',  ( 2.618611004132350143E-13, 1.874699728327310788E-32, 75.00000000000000000 ) ) ;
#51 = CC_DESIGN_APPROVAL ( #48, ( #185 ) ) ;
#52 = DIRECTION ( 'NONE',  ( -3.491481338843133355E-15, 1.224646799147353207E-16, -1.000000000000000000 ) ) ;
#53 = CARTESIAN_POINT ( 'NONE',  ( -5.344789307371197820E-31, 1.874699728327322010E-32, -1.530808498934191571E-16 ) ) ;
#54 = CARTESIAN_POINT ( 'NONE',  ( 2.269462870248036681E-14, 2.499999999999999112, 6.500000000000000000 ) ) ;
#55 = ADVANCED_FACE ( 'NONE', ( #201, #31 ), #108, .T. ) ;
#56 = CIRCLE ( 'NONE', #23, 2.500000000000003109 ) ;
#57 = ADVANCED_FACE ( 'NONE', ( #49, #93 ), #5, .T. ) ;
#58 = ORIENTED_EDGE ( 'NONE', *, *, #198, .T. ) ;
#59 = CARTESIAN_POINT ( 'NONE',  ( 1.248204578636420459E-13, 2.999999999999991118, 35.75000000000000711 ) ) ;
#60 = PERSON_AND_ORGANIZATION_ROLE ( 'creator' ) ;
#61 = EDGE_CURVE ( 'NONE', #119, #119, #207, .T. ) ;
#62 = PERSON_AND_ORGANIZATION ( #25, #177 ) ;
#63 = ORIENTED_EDGE ( 'NONE', *, *, #189, .F. ) ;
#64 = PERSON_AND_ORGANIZATION ( #25, #177 ) ;
#65 = AXIS2_PLACEMENT_3D ( 'NONE', #128, #143, #67 ) ;
#66 = AXIS2_PLACEMENT_3D ( 'NONE', #50, #151, #153 ) ;
#67 = DIRECTION ( 'NONE',  ( 4.275831445896958607E-31, 1.000000000000000000, 1.224646799147352961E-16 ) ) ;
#68 = CC_DESIGN_PERSON_AND_ORGANIZATION_ASSIGNMENT ( #243, #13, ( #185 ) ) ;
#69 = APPROVAL_STATUS ( 'not_yet_approved' ) ;
#70 = DIRECTION ( 'NONE',  ( -3.491481338843133355E-15, 1.224646799147353207E-16, -1.000000000000000000 ) ) ;
#71 = CIRCLE ( 'NONE', #211, 2.500000000000000000 ) ;
#72 = SHAPE_DEFINITION_REPRESENTATION ( #171, #111 ) ;
#73 = CARTESIAN_POINT ( 'NONE',  ( 2.618611004132350143E-13, -9.184850993605148733E-15, 75.00000000000000000 ) ) ;
#74 = AXIS2_PLACEMENT_3D ( 'NONE', #117, #18, #190 ) ;
#75 = DIRECTION ( 'NONE',  ( -3.491481338843133355E-15, 1.224646799147353207E-16, -1.000000000000000000 ) ) ;
#76 = CLOSED_SHELL ( 'NONE', ( #99, #236, #40 ) ) ;
#77 = FACE_OUTER_BOUND ( 'NONE', #214, .T. ) ;
#78 = PLANE ( 'NONE',  #66 ) ;
#79 = ORIENTED_EDGE ( 'NONE', *, *, #16, .T. ) ;
#80 = PLANE ( 'NONE',  #186 ) ;
#81 = CALENDAR_DATE ( 2024, 12, 7 ) ;
#82 = FACE_OUTER_BOUND ( 'NONE', #139, .T. ) ;
#83 = SECURITY_CLASSIFICATION ( '', '', #86 ) ;
#84 = DIRECTION ( 'NONE',  ( 3.491481338843133355E-15, -1.224646799147353207E-16, 1.000000000000000000 ) ) ;
#85 = CC_DESIGN_PERSON_AND_ORGANIZATION_ASSIGNMENT ( #62, #126, ( #232 ) ) ;
#86 = SECURITY_CLASSIFICATION_LEVEL ( 'unclassified' ) ;
#87 = CYLINDRICAL_SURFACE ( 'NONE', #65, 2.249999999999999556 ) ;
#88 = APPROVAL_ROLE ( '' ) ;
#89 = CARTESIAN_POINT ( 'NONE',  ( 2.618611004132350143E-13, 2.499999999999993783, 75.00000000000000000 ) ) ;
#90 = PRODUCT_RELATED_PRODUCT_CATEGORY ( 'detail', '', ( #232 ) ) ;
#91 = CIRCLE ( 'NONE', #127, 2.249999999999998668 ) ;
#92 = PERSON_AND_ORGANIZATION ( #25, #177 ) ;
#93 = FACE_BOUND ( 'NONE', #95, .T. ) ;
#94 = CALENDAR_DATE ( 2024, 12, 7 ) ;
#95 = EDGE_LOOP ( 'NONE', ( #63 ) ) ;
#96 = DIRECTION ( 'NONE',  ( 0.000000000000000000, -1.000000000000000000, 0.000000000000000000 ) ) ;
#97 = CARTESIAN_POINT ( 'NONE',  ( 2.601153597438134034E-13, 2.999999999999993783, 74.50000000000000000 ) ) ;
#98 = APPLICATION_CONTEXT ( 'configuration controlled 3d designs of mechanical parts and assemblies' ) ;
#99 = ADVANCED_FACE ( 'NONE', ( #114 ), #2, .T. ) ;
#100 = DIRECTION ( 'NONE',  ( -3.491481338843133355E-15, 1.224646799147353207E-16, -1.000000000000000000 ) ) ;
#101 = APPROVAL_STATUS ( 'not_yet_approved' ) ;
#102 = EDGE_LOOP ( 'NONE', ( #4 ) ) ;
#103 = PERSON_AND_ORGANIZATION ( #25, #177 ) ;
#104 = EDGE_CURVE ( 'NONE', #32, #32, #56, .T. ) ;
#105 = APPROVAL_PERSON_ORGANIZATION ( #103, #48, #149 ) ;
#106 = FACE_OUTER_BOUND ( 'NONE', #191, .T. ) ;
#107 = COORDINATED_UNIVERSAL_TIME_OFFSET ( 1, 0, .AHEAD. ) ;
#108 = CYLINDRICAL_SURFACE ( 'NONE', #221, 2.999999999999999112 ) ;
#109 = VERTEX_POINT ( 'NONE', #202 ) ;
#110 = PERSON_AND_ORGANIZATION ( #25, #177 ) ;
#111 = ADVANCED_BREP_SHAPE_REPRESENTATION ( '970166', ( #123, #36, #145 ), #192 ) ;
#112 = AXIS2_PLACEMENT_3D ( 'NONE', #33, #182, #132 ) ;
#113 = APPROVAL_DATE_TIME ( #161, #48 ) ;
#114 = FACE_OUTER_BOUND ( 'NONE', #116, .T. ) ;
#115 = CC_DESIGN_DATE_AND_TIME_ASSIGNMENT ( #129, #42, ( #43 ) ) ;
#116 = EDGE_LOOP ( 'NONE', ( #120 ) ) ;
#117 = CARTESIAN_POINT ( 'NONE',  ( 0.000000000000000000, 0.000000000000000000, 0.000000000000000000 ) ) ;
#118 = CIRCLE ( 'NONE', #178, 2.500000000000000000 ) ;
#119 = VERTEX_POINT ( 'NONE', #97 ) ;
#120 = ORIENTED_EDGE ( 'NONE', *, *, #8, .T. ) ;
#121 = LOCAL_TIME ( 11, 23, 6.000000000000000000, #203 ) ;
#122 = ORIENTED_EDGE ( 'NONE', *, *, #8, .F. ) ;
#123 = MANIFOLD_SOLID_BREP ( 'Corps-Déplacer/Copier1[1]', #30 ) ;
#124 = ORIENTED_EDGE ( 'NONE', *, *, #14, .F. ) ;
#125 = APPROVAL ( #69, 'UNSPECIFIED' ) ;
#126 = PERSON_AND_ORGANIZATION_ROLE ( 'design_owner' ) ;
#127 = AXIS2_PLACEMENT_3D ( 'NONE', #187, #52, #37 ) ;
#128 = CARTESIAN_POINT ( 'NONE',  ( 0.000000000000000000, 0.000000000000000000, 0.000000000000000000 ) ) ;
#129 = DATE_AND_TIME ( #81, #28 ) ;
#130 = DATE_AND_TIME ( #94, #226 ) ;
#131 = PLANE ( 'NONE',  #112 ) ;
#132 = DIRECTION ( 'NONE',  ( -4.275831445896958607E-31, -1.000000000000000000, -1.224646799147353207E-16 ) ) ;
#133 = CARTESIAN_POINT ( 'NONE',  ( 2.269462870248036681E-14, 2.249999999999997780, 6.500000000000000000 ) ) ;
#134 = ADVANCED_FACE ( 'NONE', ( #224, #135 ), #175, .T. ) ;
#135 = FACE_BOUND ( 'NONE', #136, .T. ) ;
#136 = EDGE_LOOP ( 'NONE', ( #169 ) ) ;
#137 = DIRECTION ( 'NONE',  ( 0.000000000000000000, 1.000000000000000000, 0.000000000000000000 ) ) ;
#138 = CARTESIAN_POINT ( 'NONE',  ( 0.000000000000000000, 0.000000000000000000, 0.000000000000000000 ) ) ;
#139 = EDGE_LOOP ( 'NONE', ( #233 ) ) ;
#140 = APPROVAL_STATUS ( 'not_yet_approved' ) ;
#141 = AXIS2_PLACEMENT_3D ( 'NONE', #168, #204, #212 ) ;
#142 = CARTESIAN_POINT ( 'NONE',  ( 2.269462870248036681E-14, 1.687229755494587619E-32, 6.500000000000000000 ) ) ;
#143 = DIRECTION ( 'NONE',  ( -3.491481338843133355E-15, 1.224646799147353207E-16, -1.000000000000000000 ) ) ;
#144 = CALENDAR_DATE ( 2024, 12, 7 ) ;
#145 = AXIS2_PLACEMENT_3D ( 'NONE', #138, #10, #234 ) ;
#146 = CC_DESIGN_PERSON_AND_ORGANIZATION_ASSIGNMENT ( #64, #60, ( #43 ) ) ;
#147 = PERSON_AND_ORGANIZATION ( #25, #177 ) ;
#148 = DIRECTION ( 'NONE',  ( -3.491481338843133355E-15, 1.224646799147353207E-16, -1.000000000000000000 ) ) ;
#149 = APPROVAL_ROLE ( '' ) ;
#150 = CC_DESIGN_SECURITY_CLASSIFICATION ( #83, ( #185 ) ) ;
#151 = DIRECTION ( 'NONE',  ( -3.491481338843133355E-15, 1.224646799147353207E-16, -1.000000000000000000 ) ) ;
#152 = VERTEX_POINT ( 'NONE', #133 ) ;
#153 = DIRECTION ( 'NONE',  ( 4.275831445896958607E-31, 1.000000000000000000, 1.224646799147353207E-16 ) ) ;
#154 = CC_DESIGN_APPROVAL ( #158, ( #43 ) ) ;
#155 = AXIS2_PLACEMENT_3D ( 'NONE', #38, #227, #167 ) ;
#156 = DIRECTION ( 'NONE',  ( 4.275831445896958607E-31, 1.000000000000000000, 1.224646799147353207E-16 ) ) ;
#157 = EDGE_LOOP ( 'NONE', ( #122 ) ) ;
#158 = APPROVAL ( #101, 'UNSPECIFIED' ) ;
#159 = ORIENTED_EDGE ( 'NONE', *, *, #16, .F. ) ;
#160 = APPROVAL_ROLE ( '' ) ;
#161 = DATE_AND_TIME ( #164, #220 ) ;
#162 = DATE_TIME_ROLE ( 'classification_date' ) ;
#163 = CC_DESIGN_DATE_AND_TIME_ASSIGNMENT ( #130, #162, ( #83 ) ) ;
#164 = CALENDAR_DATE ( 2024, 12, 7 ) ;
#165 = CIRCLE ( 'NONE', #196, 2.250000000000000444 ) ;
#166 = EDGE_LOOP ( 'NONE', ( #79 ) ) ;
#167 = DIRECTION ( 'NONE',  ( 0.000000000000000000, 1.000000000000000000, 0.000000000000000000 ) ) ;
#168 = CARTESIAN_POINT ( 'NONE',  ( 2.601153597438134034E-13, -9.123618653647781159E-15, 74.50000000000000000 ) ) ;
#169 = ORIENTED_EDGE ( 'NONE', *, *, #104, .T. ) ;
#170 = ORIENTED_EDGE ( 'NONE', *, *, #14, .T. ) ;
#171 = PRODUCT_DEFINITION_SHAPE ( 'NONE', 'NONE',  #43 ) ;
#172 = CYLINDRICAL_SURFACE ( 'NONE', #74, 2.500000000000000000 ) ;
#173 = ADVANCED_FACE ( 'NONE', ( #77 ), #78, .F. ) ;
#174 = AXIS2_PLACEMENT_3D ( 'NONE', #29, #239, #200 ) ;
#175 = CONICAL_SURFACE ( 'NONE', #155, 2.500000000000003109, 0.7853981633974479459 ) ;
#176 = VERTEX_POINT ( 'NONE', #54 ) ;
#177 = ORGANIZATION ( 'UNSPECIFIED', 'UNSPECIFIED', '' ) ;
#178 = AXIS2_PLACEMENT_3D ( 'NONE', #21, #100, #156 ) ;
#179 = COORDINATED_UNIVERSAL_TIME_OFFSET ( 1, 0, .AHEAD. ) ;
#180 = COORDINATED_UNIVERSAL_TIME_OFFSET ( 1, 0, .AHEAD. ) ;
#181 = FACE_OUTER_BOUND ( 'NONE', #157, .T. ) ;
#182 = DIRECTION ( 'NONE',  ( 3.491481338843133355E-15, -1.224646799147353207E-16, 1.000000000000000000 ) ) ;
#183 = VERTEX_POINT ( 'NONE', #215 ) ;
#184 = FACE_OUTER_BOUND ( 'NONE', #188, .T. ) ;
#185 = PRODUCT_DEFINITION_FORMATION_WITH_SPECIFIED_SOURCE ( 'ANY', '', #232, .NOT_KNOWN. ) ;
#186 = AXIS2_PLACEMENT_3D ( 'NONE', #142, #84, #47 ) ;
#187 = CARTESIAN_POINT ( 'NONE',  ( 2.269462870248036681E-14, -7.960204194457795477E-16, 6.500000000000000000 ) ) ;
#188 = EDGE_LOOP ( 'NONE', ( #213 ) ) ;
#189 = EDGE_CURVE ( 'NONE', #183, #183, #165, .T. ) ;
#190 = DIRECTION ( 'NONE',  ( 4.275831445896958607E-31, 1.000000000000000000, 1.224646799147353207E-16 ) ) ;
#191 = EDGE_LOOP ( 'NONE', ( #170 ) ) ;
#192 =( GEOMETRIC_REPRESENTATION_CONTEXT ( 3 ) GLOBAL_UNCERTAINTY_ASSIGNED_CONTEXT ( ( #217 ) ) GLOBAL_UNIT_ASSIGNED_CONTEXT ( ( #12, #39, #20 ) ) REPRESENTATION_CONTEXT ( 'NONE', 'WORKASPACE' ) );
#193 = EDGE_LOOP ( 'NONE', ( #15 ) ) ;
#194 = DESIGN_CONTEXT ( 'detailed design', #98, 'design' ) ;
#195 = APPLICATION_PROTOCOL_DEFINITION ( 'international standard', 'config_control_design', 1994, #98 ) ;
#196 = AXIS2_PLACEMENT_3D ( 'NONE', #229, #75, #208 ) ;
#197 = APPROVAL_DATE_TIME ( #27, #158 ) ;
#198 = EDGE_CURVE ( 'NONE', #152, #152, #91, .T. ) ;
#199 = APPROVAL_DATE_TIME ( #206, #125 ) ;
#200 = DIRECTION ( 'NONE',  ( 0.000000000000000000, 1.000000000000000000, 0.000000000000000000 ) ) ;
#201 = FACE_OUTER_BOUND ( 'NONE', #9, .T. ) ;
#202 = CARTESIAN_POINT ( 'NONE',  ( 0.000000000000000000, 2.500000000000000000, 0.000000000000000000 ) ) ;
#203 = COORDINATED_UNIVERSAL_TIME_OFFSET ( 1, 0, .AHEAD. ) ;
#204 = DIRECTION ( 'NONE',  ( -3.491481338843133355E-15, 1.224646799147353207E-16, -1.000000000000000000 ) ) ;
#205 = LOCAL_TIME ( 11, 23, 6.000000000000000000, #179 ) ;
#206 = DATE_AND_TIME ( #144, #121 ) ;
#207 = CIRCLE ( 'NONE', #141, 3.000000000000003109 ) ;
#208 = DIRECTION ( 'NONE',  ( 0.000000000000000000, 1.000000000000000000, 0.000000000000000000 ) ) ;
#209 = CC_DESIGN_PERSON_AND_ORGANIZATION_ASSIGNMENT ( #110, #238, ( #83 ) ) ;
#210 = APPROVAL_PERSON_ORGANIZATION ( #26, #158, #160 ) ;
#211 = AXIS2_PLACEMENT_3D ( 'NONE', #230, #24, #46 ) ;
#212 = DIRECTION ( 'NONE',  ( 0.000000000000000000, 1.000000000000000000, 0.000000000000000000 ) ) ;
#213 = ORIENTED_EDGE ( 'NONE', *, *, #189, .T. ) ;
#214 = EDGE_LOOP ( 'NONE', ( #242 ) ) ;
#215 = CARTESIAN_POINT ( 'NONE',  ( 1.222018468595096801E-13, 2.249999999999996003, 35.00000000000000000 ) ) ;
#216 = APPLICATION_PROTOCOL_DEFINITION ( 'international standard', 'config_control_design', 1994, #231 ) ;
#217 = UNCERTAINTY_MEASURE_WITH_UNIT (LENGTH_MEASURE( 1.000000000000000082E-05 ), #12, 'distance_accuracy_value', 'NONE');
#218 = EDGE_LOOP ( 'NONE', ( #58 ) ) ;
#219 = CALENDAR_DATE ( 2024, 12, 7 ) ;
#220 = LOCAL_TIME ( 11, 23, 6.000000000000000000, #34 ) ;
#221 = AXIS2_PLACEMENT_3D ( 'NONE', #241, #70, #222 ) ;
#222 = DIRECTION ( 'NONE',  ( 4.275831445896958607E-31, 1.000000000000000000, 1.224646799147353207E-16 ) ) ;
#223 = PERSON_AND_ORGANIZATION_ROLE ( 'creator' ) ;
#224 = FACE_OUTER_BOUND ( 'NONE', #102, .T. ) ;
#225 = DIRECTION ( 'NONE',  ( -3.491481338843133355E-15, 1.224646799147353207E-16, -1.000000000000000000 ) ) ;
#226 = LOCAL_TIME ( 11, 23, 6.000000000000000000, #107 ) ;
#227 = DIRECTION ( 'NONE',  ( -3.491481338843133355E-15, 1.224646799147353207E-16, -1.000000000000000000 ) ) ;
#228 = EDGE_LOOP ( 'NONE', ( #124 ) ) ;
#229 = CARTESIAN_POINT ( 'NONE',  ( 1.222018468595096801E-13, -4.286263797015736496E-15, 35.00000000000000000 ) ) ;
#230 = CARTESIAN_POINT ( 'NONE',  ( 2.269462870248036681E-14, -7.960204194457795477E-16, 6.500000000000000000 ) ) ;
#231 = APPLICATION_CONTEXT ( 'configuration controlled 3d designs of mechanical parts and assemblies' ) ;
#232 = PRODUCT ( '970166', '970166', '', ( #237 ) ) ;
#233 = ORIENTED_EDGE ( 'NONE', *, *, #198, .F. ) ;
#234 = DIRECTION ( 'NONE',  ( 1.000000000000000000, 0.000000000000000000, 0.000000000000000000 ) ) ;
#235 = ADVANCED_FACE ( 'NONE', ( #17 ), #80, .F. ) ;
#236 = ADVANCED_FACE ( 'NONE', ( #106, #181 ), #172, .T. ) ;
#237 = MECHANICAL_CONTEXT ( 'NONE', #231, 'mechanical' ) ;
#238 = PERSON_AND_ORGANIZATION_ROLE ( 'classification_officer' ) ;
#239 = DIRECTION ( 'NONE',  ( -3.491481338843133355E-15, 1.224646799147353207E-16, -1.000000000000000000 ) ) ;
#240 = FACE_OUTER_BOUND ( 'NONE', #228, .T. ) ;
#241 = CARTESIAN_POINT ( 'NONE',  ( 0.000000000000000000, 0.000000000000000000, 0.000000000000000000 ) ) ;
#242 = ORIENTED_EDGE ( 'NONE', *, *, #104, .F. ) ;
#243 = PERSON_AND_ORGANIZATION ( #25, #177 ) ;
ENDSEC;
END-ISO-10303-21;
