ISO-10303-21;
HEADER;
FILE_DESCRIPTION (( 'STEP AP203' ),
    '1' );
FILE_NAME ('97.step',
    '2021-10-06T11:26:41',
    ( '' ),
    ( '' ),
    'SwSTEP 2.0',
    'SolidWorks 2019',
    '' );
FILE_SCHEMA (( 'CONFIG_CONTROL_DESIGN' ));
ENDSEC;

DATA;
#1 = CARTESIAN_POINT ( 'NONE',  ( 1.326762908760390423E-13, 2.249639673992716963E-33, 38.00000000000000000 ) ) ;
#2 = CARTESIAN_POINT ( 'NONE',  ( 4.538925740496073362E-14, 0.3999999999999953593, 13.00000000000000000 ) ) ;
#3 = CC_DESIGN_PERSON_AND_ORGANIZATION_ASSIGNMENT ( #45, #182, ( #134 ) ) ;
#4 = DATE_AND_TIME ( #194, #115 ) ;
#5 = CARTESIAN_POINT ( 'NONE',  ( 0.0000000000000000000, 0.0000000000000000000, 0.0000000000000000000 ) ) ;
#6 = DATE_AND_TIME ( #72, #50 ) ;
#7 = DATE_AND_TIME ( #164, #15 ) ;
#8 = AXIS2_PLACEMENT_3D ( 'NONE', #84, #62, #102 ) ;
#9 = APPROVAL_STATUS ( 'not_yet_approved' ) ;
#10 = CARTESIAN_POINT ( 'NONE',  ( 0.0000000000000000000, 0.0000000000000000000, 0.0000000000000000000 ) ) ;
#11 = CYLINDRICAL_SURFACE ( 'NONE', #175, 0.3999999999999984679 ) ;
#12 = AXIS2_PLACEMENT_3D ( 'NONE', #101, #124, #126 ) ;
#13 = EDGE_LOOP ( 'NONE', ( #23 ) ) ;
#14 = APPROVAL ( #193, 'UNSPECIFIED' ) ;
#15 = LOCAL_TIME ( 13, 26, 41.00000000000000000, #149 ) ;
#16 = ORIENTED_EDGE ( 'NONE', *, *, #73, .T. ) ;
#17 = CARTESIAN_POINT ( 'NONE',  ( 6.512417946431292660E-16, -2.284248723909672399E-17, 0.1865230632619997442 ) ) ;
#18 =( NAMED_UNIT ( * ) PLANE_ANGLE_UNIT ( ) SI_UNIT ( $, .RADIAN. ) );
#19 = DATE_AND_TIME ( #99, #81 ) ;
#20 = COORDINATED_UNIVERSAL_TIME_OFFSET ( 1, 0, .AHEAD. ) ;
#21 =( LENGTH_UNIT ( ) NAMED_UNIT ( * ) SI_UNIT ( .MILLI., .METRE. ) );
#22 = PERSON_AND_ORGANIZATION_ROLE ( 'design_owner' ) ;
#23 = ORIENTED_EDGE ( 'NONE', *, *, #73, .F. ) ;
#24 = AXIS2_PLACEMENT_3D ( 'NONE', #65, #170, #40 ) ;
#25 = CC_DESIGN_APPROVAL ( #26, ( #199 ) ) ;
#26 = APPROVAL ( #33, 'UNSPECIFIED' ) ;
#27 = EDGE_LOOP ( 'NONE', ( #82 ) ) ;
#28 = AXIS2_PLACEMENT_3D ( 'NONE', #79, #60, #135 ) ;
#29 = CARTESIAN_POINT ( 'NONE',  ( 1.323271427421547605E-13, 0.3999999999999953593, 37.89999999999999858 ) ) ;
#30 = FACE_OUTER_BOUND ( 'NONE', #167, .T. ) ;
#31 = PRODUCT_DEFINITION_SHAPE ( 'NONE', 'NONE',  #64 ) ;
#32 = PERSON_AND_ORGANIZATION_ROLE ( 'creator' ) ;
#33 = APPROVAL_STATUS ( 'not_yet_approved' ) ;
#34 = DATE_TIME_ROLE ( 'classification_date' ) ;
#35 = FACE_OUTER_BOUND ( 'NONE', #27, .T. ) ;
#36 = DIRECTION ( 'NONE',  ( 4.275831445896958607E-31, 1.000000000000000000, 1.224646799147353207E-16 ) ) ;
#37 = ORIENTED_EDGE ( 'NONE', *, *, #150, .T. ) ;
#38 = CARTESIAN_POINT ( 'NONE',  ( 4.538925740496073362E-14, 2.999519565323668688E-33, 13.00000000000000000 ) ) ;
#39 = EDGE_CURVE ( 'NONE', #177, #177, #156, .T. ) ;
#40 = DIRECTION ( 'NONE',  ( 0.0000000000000000000, 1.000000000000000000, 0.0000000000000000000 ) ) ;
#41 = AXIS2_PLACEMENT_3D ( 'NONE', #147, #172, #139 ) ;
#42 = DIRECTION ( 'NONE',  ( 0.0000000000000000000, 1.000000000000000000, 0.0000000000000000000 ) ) ;
#43 = CYLINDRICAL_SURFACE ( 'NONE', #41, 0.3999999999999961919 ) ;
#44 = CARTESIAN_POINT ( 'NONE',  ( 1.326762908760390423E-13, 0.2999999999999953815, 38.00000000000000000 ) ) ;
#45 = PERSON_AND_ORGANIZATION ( #55, #142 ) ;
#46 = COORDINATED_UNIVERSAL_TIME_OFFSET ( 1, 0, .AHEAD. ) ;
#47 = PERSON_AND_ORGANIZATION_ROLE ( 'creator' ) ;
#48 = CARTESIAN_POINT ( 'NONE',  ( 4.538925740496073362E-14, -1.592040838891559095E-15, 13.00000000000000000 ) ) ;
#49 = CARTESIAN_POINT ( 'NONE',  ( 4.538925740496073362E-14, 2.999519565323668688E-33, 13.00000000000000000 ) ) ;
#50 = LOCAL_TIME ( 13, 26, 41.00000000000000000, #132 ) ;
#51 = PRODUCT ( '97', '97', '', ( #78 ) ) ;
#52 = PLANE ( 'NONE',  #54 ) ;
#53 = DIRECTION ( 'NONE',  ( 4.275831445896958607E-31, 1.000000000000000000, 1.224646799147353207E-16 ) ) ;
#54 = AXIS2_PLACEMENT_3D ( 'NONE', #38, #188, #105 ) ;
#55 = PERSON ( 'UNSPECIFIED', 'UNSPECIFIED', 'UNSPECIFIED', ('UNSPECIFIED'), ('UNSPECIFIED'), ('UNSPECIFIED') ) ;
#56 = DIRECTION ( 'NONE',  ( 1.000000000000000000, 0.0000000000000000000, 0.0000000000000000000 ) ) ;
#57 = EDGE_LOOP ( 'NONE', ( #83 ) ) ;
#58 = APPROVAL_DATE_TIME ( #6, #14 ) ;
#59 = CALENDAR_DATE ( 2021, 6, 10 ) ;
#60 = DIRECTION ( 'NONE',  ( -3.491481338843133355E-15, 1.224646799147353207E-16, -1.000000000000000000 ) ) ;
#61 = COORDINATED_UNIVERSAL_TIME_OFFSET ( 1, 0, .AHEAD. ) ;
#62 = DIRECTION ( 'NONE',  ( -3.491481338843133355E-15, 1.224646799147353207E-16, -1.000000000000000000 ) ) ;
#63 = AXIS2_PLACEMENT_3D ( 'NONE', #1, #125, #53 ) ;
#64 = PRODUCT_DEFINITION ( 'UNKNOWN', '', #199, #98 ) ;
#65 = CARTESIAN_POINT ( 'NONE',  ( 1.326762908760390423E-13, -4.653657836759941941E-15, 38.00000000000000000 ) ) ;
#66 = CC_DESIGN_PERSON_AND_ORGANIZATION_ASSIGNMENT ( #94, #112, ( #199 ) ) ;
#67 = CONICAL_SURFACE ( 'NONE', #24, 0.3000000000000000444, 0.7853981633974339571 ) ;
#68 = FACE_BOUND ( 'NONE', #117, .T. ) ;
#69 = CARTESIAN_POINT ( 'NONE',  ( 6.512417946431294633E-16, 0.3999999999999953593, 0.1865230632619997997 ) ) ;
#70 =( NAMED_UNIT ( * ) SI_UNIT ( $, .STERADIAN. ) SOLID_ANGLE_UNIT ( ) );
#71 = EDGE_LOOP ( 'NONE', ( #37 ) ) ;
#72 = CALENDAR_DATE ( 2021, 6, 10 ) ;
#73 = EDGE_CURVE ( 'NONE', #123, #123, #128, .T. ) ;
#74 = CC_DESIGN_APPROVAL ( #14, ( #64 ) ) ;
#75 = APPROVAL_PERSON_ORGANIZATION ( #116, #26, #197 ) ;
#76 = ORIENTED_EDGE ( 'NONE', *, *, #187, .T. ) ;
#77 = PERSON_AND_ORGANIZATION ( #55, #142 ) ;
#78 = MECHANICAL_CONTEXT ( 'NONE', #161, 'mechanical' ) ;
#79 = CARTESIAN_POINT ( 'NONE',  ( 6.512417946431292660E-16, -2.284248723909672399E-17, 0.1865230632619997442 ) ) ;
#80 = DATE_TIME_ROLE ( 'creation_date' ) ;
#81 = LOCAL_TIME ( 13, 26, 41.00000000000000000, #20 ) ;
#82 = ORIENTED_EDGE ( 'NONE', *, *, #141, .F. ) ;
#83 = ORIENTED_EDGE ( 'NONE', *, *, #39, .F. ) ;
#84 = CARTESIAN_POINT ( 'NONE',  ( 1.326762908760390423E-13, -4.653657836759941941E-15, 38.00000000000000000 ) ) ;
#85 = CIRCLE ( 'NONE', #12, 0.4000000000000000222 ) ;
#86 = EDGE_LOOP ( 'NONE', ( #165 ) ) ;
#87 = PRODUCT_RELATED_PRODUCT_CATEGORY ( 'detail', '', ( #51 ) ) ;
#88 = PLANE ( 'NONE',  #63 ) ;
#89 = AXIS2_PLACEMENT_3D ( 'NONE', #17, #109, #181 ) ;
#90 = ADVANCED_FACE ( 'NONE', ( #35, #68 ), #67, .T. ) ;
#91 = VERTEX_POINT ( 'NONE', #69 ) ;
#92 = AXIS2_PLACEMENT_3D ( 'NONE', #48, #120, #155 ) ;
#93 = CC_DESIGN_DATE_AND_TIME_ASSIGNMENT ( #7, #34, ( #134 ) ) ;
#94 = PERSON_AND_ORGANIZATION ( #55, #142 ) ;
#95 = ADVANCED_FACE ( 'NONE', ( #189 ), #52, .F. ) ;
#96 = SECURITY_CLASSIFICATION_LEVEL ( 'unclassified' ) ;
#97 = APPLICATION_CONTEXT ( 'configuration controlled 3d designs of mechanical parts and assemblies' ) ;
#98 = DESIGN_CONTEXT ( 'detailed design', #97, 'design' ) ;
#99 = CALENDAR_DATE ( 2021, 6, 10 ) ;
#100 = ORIENTED_EDGE ( 'NONE', *, *, #150, .F. ) ;
#101 = CARTESIAN_POINT ( 'NONE',  ( 1.323271427421547605E-13, -4.641411368768468584E-15, 37.89999999999999858 ) ) ;
#102 = DIRECTION ( 'NONE',  ( 0.0000000000000000000, 1.000000000000000000, 0.0000000000000000000 ) ) ;
#103 = DIRECTION ( 'NONE',  ( 3.491481338843133355E-15, -1.224646799147353207E-16, 1.000000000000000000 ) ) ;
#104 = CIRCLE ( 'NONE', #28, 0.3999999999999953593 ) ;
#105 = DIRECTION ( 'NONE',  ( -4.275831445896958607E-31, -1.000000000000000000, -1.224646799147353207E-16 ) ) ;
#106 = MANIFOLD_SOLID_BREP ( 'Corps-Déplacer/Copier1[1]', #185 ) ;
#107 = MANIFOLD_SOLID_BREP ( 'Corps-Déplacer/Copier1[2]', #114 ) ;
#108 = FACE_OUTER_BOUND ( 'NONE', #86, .T. ) ;
#109 = DIRECTION ( 'NONE',  ( 3.491481338843133355E-15, -1.224646799147353207E-16, 1.000000000000000000 ) ) ;
#110 = CC_DESIGN_APPROVAL ( #162, ( #134 ) ) ;
#111 = SHAPE_DEFINITION_REPRESENTATION ( #31, #152 ) ;
#112 = PERSON_AND_ORGANIZATION_ROLE ( 'design_supplier' ) ;
#113 = APPROVAL_DATE_TIME ( #4, #26 ) ;
#114 = CLOSED_SHELL ( 'NONE', ( #176, #158, #119 ) ) ;
#115 = LOCAL_TIME ( 13, 26, 41.00000000000000000, #46 ) ;
#116 = PERSON_AND_ORGANIZATION ( #55, #142 ) ;
#117 = EDGE_LOOP ( 'NONE', ( #16 ) ) ;
#118 = DATE_AND_TIME ( #59, #200 ) ;
#119 = ADVANCED_FACE ( 'NONE', ( #202 ), #190, .T. ) ;
#120 = DIRECTION ( 'NONE',  ( -3.491481338843133355E-15, 1.224646799147353207E-16, -1.000000000000000000 ) ) ;
#121 = CIRCLE ( 'NONE', #145, 0.3999999999999969136 ) ;
#122 = FACE_OUTER_BOUND ( 'NONE', #184, .T. ) ;
#123 = VERTEX_POINT ( 'NONE', #44 ) ;
#124 = DIRECTION ( 'NONE',  ( -3.491481338843133355E-15, 1.224646799147353207E-16, -1.000000000000000000 ) ) ;
#125 = DIRECTION ( 'NONE',  ( -3.491481338843133355E-15, 1.224646799147353207E-16, -1.000000000000000000 ) ) ;
#126 = DIRECTION ( 'NONE',  ( 0.0000000000000000000, 1.000000000000000000, 0.0000000000000000000 ) ) ;
#127 = CARTESIAN_POINT ( 'NONE',  ( 4.538925740496073362E-14, -1.592040838891559095E-15, 13.00000000000000000 ) ) ;
#128 = CIRCLE ( 'NONE', #8, 0.3000000000000000444 ) ;
#129 = PERSON_AND_ORGANIZATION ( #55, #142 ) ;
#130 = PERSON_AND_ORGANIZATION ( #55, #142 ) ;
#131 = ADVANCED_FACE ( 'NONE', ( #180, #122 ), #11, .T. ) ;
#132 = COORDINATED_UNIVERSAL_TIME_OFFSET ( 1, 0, .AHEAD. ) ;
#133 =( GEOMETRIC_REPRESENTATION_CONTEXT ( 3 ) GLOBAL_UNCERTAINTY_ASSIGNED_CONTEXT ( ( #168 ) ) GLOBAL_UNIT_ASSIGNED_CONTEXT ( ( #21, #18, #70 ) ) REPRESENTATION_CONTEXT ( 'NONE', 'WORKASPACE' ) );
#134 = SECURITY_CLASSIFICATION ( '', '', #96 ) ;
#135 = DIRECTION ( 'NONE',  ( 4.814824860968145685E-31, 1.000000000000000000, 1.355252715606896320E-16 ) ) ;
#136 = EDGE_LOOP ( 'NONE', ( #100 ) ) ;
#137 = DIRECTION ( 'NONE',  ( -3.491481338843133355E-15, 1.224646799147353207E-16, -1.000000000000000000 ) ) ;
#138 = VERTEX_POINT ( 'NONE', #2 ) ;
#139 = DIRECTION ( 'NONE',  ( 4.275831445896958607E-31, 1.000000000000000000, 1.224646799147353207E-16 ) ) ;
#140 = ORIENTED_EDGE ( 'NONE', *, *, #141, .T. ) ;
#141 = EDGE_CURVE ( 'NONE', #144, #144, #85, .T. ) ;
#142 = ORGANIZATION ( 'UNSPECIFIED', 'UNSPECIFIED', '' ) ;
#143 = CC_DESIGN_PERSON_AND_ORGANIZATION_ASSIGNMENT ( #130, #22, ( #51 ) ) ;
#144 = VERTEX_POINT ( 'NONE', #29 ) ;
#145 = AXIS2_PLACEMENT_3D ( 'NONE', #127, #191, #42 ) ;
#146 = DIRECTION ( 'NONE',  ( 0.0000000000000000000, 0.0000000000000000000, 1.000000000000000000 ) ) ;
#147 = CARTESIAN_POINT ( 'NONE',  ( 0.0000000000000000000, 0.0000000000000000000, 0.0000000000000000000 ) ) ;
#148 = APPROVAL_PERSON_ORGANIZATION ( #77, #14, #163 ) ;
#149 = COORDINATED_UNIVERSAL_TIME_OFFSET ( 1, 0, .AHEAD. ) ;
#150 = EDGE_CURVE ( 'NONE', #138, #138, #121, .T. ) ;
#151 = PERSON_AND_ORGANIZATION ( #55, #142 ) ;
#152 = ADVANCED_BREP_SHAPE_REPRESENTATION ( '97', ( #106, #107, #203 ), #133 ) ;
#153 = APPLICATION_PROTOCOL_DEFINITION ( 'international standard', 'config_control_design', 1994, #161 ) ;
#154 = APPROVAL_PERSON_ORGANIZATION ( #166, #162, #178 ) ;
#155 = DIRECTION ( 'NONE',  ( 0.0000000000000000000, 1.000000000000000000, 0.0000000000000000000 ) ) ;
#156 = CIRCLE ( 'NONE', #92, 0.3999999999999969136 ) ;
#157 = CC_DESIGN_SECURITY_CLASSIFICATION ( #134, ( #199 ) ) ;
#158 = ADVANCED_FACE ( 'NONE', ( #30, #108 ), #43, .T. ) ;
#159 = ORIENTED_EDGE ( 'NONE', *, *, #187, .F. ) ;
#160 = EDGE_LOOP ( 'NONE', ( #76 ) ) ;
#161 = APPLICATION_CONTEXT ( 'configuration controlled 3d designs of mechanical parts and assemblies' ) ;
#162 = APPROVAL ( #9, 'UNSPECIFIED' ) ;
#163 = APPROVAL_ROLE ( '' ) ;
#164 = CALENDAR_DATE ( 2021, 6, 10 ) ;
#165 = ORIENTED_EDGE ( 'NONE', *, *, #39, .T. ) ;
#166 = PERSON_AND_ORGANIZATION ( #55, #142 ) ;
#167 = EDGE_LOOP ( 'NONE', ( #159 ) ) ;
#168 = UNCERTAINTY_MEASURE_WITH_UNIT (LENGTH_MEASURE( 1.000000000000000082E-05 ), #21, 'distance_accuracy_value', 'NONE');
#169 = FACE_OUTER_BOUND ( 'NONE', #160, .T. ) ;
#170 = DIRECTION ( 'NONE',  ( -3.491481338843133355E-15, 1.224646799147353207E-16, -1.000000000000000000 ) ) ;
#171 = CC_DESIGN_PERSON_AND_ORGANIZATION_ASSIGNMENT ( #151, #47, ( #64 ) ) ;
#172 = DIRECTION ( 'NONE',  ( -3.491481338843133355E-15, 1.224646799147353207E-16, -1.000000000000000000 ) ) ;
#173 = AXIS2_PLACEMENT_3D ( 'NONE', #49, #103, #186 ) ;
#174 = ADVANCED_FACE ( 'NONE', ( #201 ), #88, .F. ) ;
#175 = AXIS2_PLACEMENT_3D ( 'NONE', #10, #137, #36 ) ;
#176 = ADVANCED_FACE ( 'NONE', ( #169 ), #195, .T. ) ;
#177 = VERTEX_POINT ( 'NONE', #183 ) ;
#178 = APPROVAL_ROLE ( '' ) ;
#179 = APPLICATION_PROTOCOL_DEFINITION ( 'international standard', 'config_control_design', 1994, #97 ) ;
#180 = FACE_OUTER_BOUND ( 'NONE', #136, .T. ) ;
#181 = DIRECTION ( 'NONE',  ( -4.814824860968145685E-31, -1.000000000000000000, -1.355252715606896320E-16 ) ) ;
#182 = PERSON_AND_ORGANIZATION_ROLE ( 'classification_officer' ) ;
#183 = CARTESIAN_POINT ( 'NONE',  ( 4.538925740496073362E-14, 0.3999999999999953593, 13.00000000000000000 ) ) ;
#184 = EDGE_LOOP ( 'NONE', ( #140 ) ) ;
#185 = CLOSED_SHELL ( 'NONE', ( #95, #131, #90, #174 ) ) ;
#186 = DIRECTION ( 'NONE',  ( -4.275831445896958607E-31, -1.000000000000000000, -1.224646799147353207E-16 ) ) ;
#187 = EDGE_CURVE ( 'NONE', #91, #91, #104, .T. ) ;
#188 = DIRECTION ( 'NONE',  ( 3.491481338843133355E-15, -1.224646799147353207E-16, 1.000000000000000000 ) ) ;
#189 = FACE_OUTER_BOUND ( 'NONE', #71, .T. ) ;
#190 = PLANE ( 'NONE',  #173 ) ;
#191 = DIRECTION ( 'NONE',  ( -3.491481338843133355E-15, 1.224646799147353207E-16, -1.000000000000000000 ) ) ;
#192 = APPROVAL_DATE_TIME ( #19, #162 ) ;
#193 = APPROVAL_STATUS ( 'not_yet_approved' ) ;
#194 = CALENDAR_DATE ( 2021, 6, 10 ) ;
#195 = CONICAL_SURFACE ( 'NONE', #89, 0.3999999999999953593, 1.134464013796309123 ) ;
#196 = CC_DESIGN_PERSON_AND_ORGANIZATION_ASSIGNMENT ( #129, #32, ( #199 ) ) ;
#197 = APPROVAL_ROLE ( '' ) ;
#198 = CC_DESIGN_DATE_AND_TIME_ASSIGNMENT ( #118, #80, ( #64 ) ) ;
#199 = PRODUCT_DEFINITION_FORMATION_WITH_SPECIFIED_SOURCE ( 'ANY', '', #51, .NOT_KNOWN. ) ;
#200 = LOCAL_TIME ( 13, 26, 41.00000000000000000, #61 ) ;
#201 = FACE_OUTER_BOUND ( 'NONE', #13, .T. ) ;
#202 = FACE_OUTER_BOUND ( 'NONE', #57, .T. ) ;
#203 = AXIS2_PLACEMENT_3D ( 'NONE', #5, #146, #56 ) ;
ENDSEC;
END-ISO-10303-21;
