ISO-10303-21;
HEADER;
FILE_DESCRIPTION (( 'STEP AP203' ),
    '1' );
FILE_NAME ('969795.step',
    '2021-12-16T13:16:23',
    ( '' ),
    ( '' ),
    'SwSTEP 2.0',
    'SolidWorks 2019',
    '' );
FILE_SCHEMA (( 'CONFIG_CONTROL_DESIGN' ));
ENDSEC;

DATA;
#1 = PLANE ( 'NONE',  #25 ) ;
#2 = DATE_AND_TIME ( #197, #162 ) ;
#3 = ORIENTED_EDGE ( 'NONE', *, *, #185, .T. ) ;
#4 = PERSON_AND_ORGANIZATION ( #225, #212 ) ;
#5 = FACE_OUTER_BOUND ( 'NONE', #22, .T. ) ;
#6 = ORIENTED_EDGE ( 'NONE', *, *, #83, .T. ) ;
#7 = DIRECTION ( 'NONE',  ( 4.275831445896958607E-31, 1.000000000000000000, 1.224646799147352961E-16 ) ) ;
#8 = PLANE ( 'NONE',  #191 ) ;
#9 = FACE_BOUND ( 'NONE', #70, .T. ) ;
#10 = AXIS2_PLACEMENT_3D ( 'NONE', #214, #82, #37 ) ;
#11 = CIRCLE ( 'NONE', #34, 0.1300000000000000044 ) ;
#12 = PLANE ( 'NONE',  #237 ) ;
#13 = DIRECTION ( 'NONE',  ( 3.491481338843133355E-15, -1.224646799147353207E-16, 1.000000000000000000 ) ) ;
#14 = APPLICATION_PROTOCOL_DEFINITION ( 'international standard', 'config_control_design', 1994, #178 ) ;
#15 = EDGE_CURVE ( 'NONE', #238, #238, #127, .T. ) ;
#16 = CONICAL_SURFACE ( 'NONE', #59, 0.9999999999999967804, 0.2617993877991427465 ) ;
#17 = DATE_AND_TIME ( #211, #232 ) ;
#18 = PERSON_AND_ORGANIZATION_ROLE ( 'creator' ) ;
#19 =( LENGTH_UNIT ( ) NAMED_UNIT ( * ) SI_UNIT ( .MILLI., .METRE. ) );
#20 = CARTESIAN_POINT ( 'NONE',  ( 1.117274028429802674E-13, 0.7999999999999963807, 32.00000000000000000 ) ) ;
#21 = LOCAL_TIME ( 14, 16, 23.00000000000000000, #77 ) ;
#22 = EDGE_LOOP ( 'NONE', ( #85 ) ) ;
#23 = EDGE_LOOP ( 'NONE', ( #249 ) ) ;
#24 = CIRCLE ( 'NONE', #112, 0.9999999999999967804 ) ;
#25 = AXIS2_PLACEMENT_3D ( 'NONE', #173, #90, #176 ) ;
#26 = ORIENTED_EDGE ( 'NONE', *, *, #15, .T. ) ;
#27 = CC_DESIGN_PERSON_AND_ORGANIZATION_ASSIGNMENT ( #242, #243, ( #248 ) ) ;
#28 = ORIENTED_EDGE ( 'NONE', *, *, #245, .F. ) ;
#29 = CARTESIAN_POINT ( 'NONE',  ( 1.127542308347002316E-14, -3.954886034928378019E-16, 3.229409522551256018 ) ) ;
#30 = LOCAL_TIME ( 14, 16, 23.00000000000000000, #153 ) ;
#31 = CARTESIAN_POINT ( 'NONE',  ( 8.728703347107833388E-15, 1.563499573424978605E-33, 2.500000000000000000 ) ) ;
#32 = DIRECTION ( 'NONE',  ( 0.0000000000000000000, 1.000000000000000000, 0.0000000000000000000 ) ) ;
#33 = DIRECTION ( 'NONE',  ( -3.491481338843133355E-15, 1.224646799147353207E-16, -1.000000000000000000 ) ) ;
#34 = AXIS2_PLACEMENT_3D ( 'NONE', #134, #72, #7 ) ;
#35 = AXIS2_PLACEMENT_3D ( 'NONE', #47, #221, #110 ) ;
#36 = CARTESIAN_POINT ( 'NONE',  ( 1.110291065752116407E-13, -3.894376821288583549E-15, 31.80000000000000071 ) ) ;
#37 = DIRECTION ( 'NONE',  ( 1.000000000000000000, 0.0000000000000000000, 0.0000000000000000000 ) ) ;
#38 = ADVANCED_FACE ( 'NONE', ( #91, #269 ), #61, .F. ) ;
#39 = PERSON_AND_ORGANIZATION ( #225, #212 ) ;
#40 = PRODUCT_DEFINITION_SHAPE ( 'NONE', 'NONE',  #215 ) ;
#41 = EDGE_CURVE ( 'NONE', #280, #280, #274, .T. ) ;
#42 =( NAMED_UNIT ( * ) PLANE_ANGLE_UNIT ( ) SI_UNIT ( $, .RADIAN. ) );
#43 = COORDINATED_UNIVERSAL_TIME_OFFSET ( 1, 0, .AHEAD. ) ;
#44 = CC_DESIGN_PERSON_AND_ORGANIZATION_ASSIGNMENT ( #58, #281, ( #144 ) ) ;
#45 = PERSON_AND_ORGANIZATION_ROLE ( 'design_supplier' ) ;
#46 = CARTESIAN_POINT ( 'NONE',  ( 1.082359215041371182E-14, -4.336808689942017736E-16, 3.099999999999999645 ) ) ;
#47 = CARTESIAN_POINT ( 'NONE',  ( 1.022885281393950355E-15, -3.587798599459510445E-17, 0.2929659883941619358 ) ) ;
#48 = APPROVAL_PERSON_ORGANIZATION ( #106, #171, #266 ) ;
#49 = ORIENTED_EDGE ( 'NONE', *, *, #15, .F. ) ;
#50 = DIRECTION ( 'NONE',  ( 3.491481338843133355E-15, -1.224646799147353207E-16, 1.000000000000000000 ) ) ;
#51 = MANIFOLD_SOLID_BREP ( 'Corps-Déplacer/Copier1[2]', #73 ) ;
#52 = LOCAL_TIME ( 14, 16, 23.00000000000000000, #43 ) ;
#53 = FACE_BOUND ( 'NONE', #174, .T. ) ;
#54 = ADVANCED_FACE ( 'NONE', ( #5 ), #1, .F. ) ;
#55 = DIRECTION ( 'NONE',  ( 0.0000000000000000000, 1.000000000000000000, 0.0000000000000000000 ) ) ;
#56 = CARTESIAN_POINT ( 'NONE',  ( 1.022885281393950355E-15, -3.587798599459510445E-17, 0.2929659883941619358 ) ) ;
#57 = APPLICATION_PROTOCOL_DEFINITION ( 'international standard', 'config_control_design', 1994, #100 ) ;
#58 = PERSON_AND_ORGANIZATION ( #225, #212 ) ;
#59 = AXIS2_PLACEMENT_3D ( 'NONE', #271, #50, #93 ) ;
#60 = VERTEX_POINT ( 'NONE', #147 ) ;
#61 = TOROIDAL_SURFACE ( 'NONE', #96, 0.7084999999999996856, 0.5000000000000000000 ) ;
#62 = DIRECTION ( 'NONE',  ( -3.491481338843133355E-15, 1.224646799147353207E-16, -1.000000000000000000 ) ) ;
#63 = APPROVAL_STATUS ( 'not_yet_approved' ) ;
#64 = ORIENTED_EDGE ( 'NONE', *, *, #146, .F. ) ;
#65 = DATE_AND_TIME ( #224, #30 ) ;
#66 = EDGE_LOOP ( 'NONE', ( #170 ) ) ;
#67 = CIRCLE ( 'NONE', #206, 0.2255370868554645580 ) ;
#68 = APPROVAL_PERSON_ORGANIZATION ( #123, #213, #278 ) ;
#69 = AXIS2_PLACEMENT_3D ( 'NONE', #157, #137, #184 ) ;
#70 = EDGE_LOOP ( 'NONE', ( #216 ) ) ;
#71 = CARTESIAN_POINT ( 'NONE',  ( -9.877049788769878060E-32, 3.464402709035794281E-33, -2.828899492856100485E-17 ) ) ;
#72 = DIRECTION ( 'NONE',  ( -3.491481338843133355E-15, 1.224646799147353207E-16, -1.000000000000000000 ) ) ;
#73 = CLOSED_SHELL ( 'NONE', ( #196, #163, #115, #124 ) ) ;
#74 = DIRECTION ( 'NONE',  ( 0.0000000000000000000, 1.000000000000000000, 0.0000000000000000000 ) ) ;
#75 = CYLINDRICAL_SURFACE ( 'NONE', #181, 0.9999999999999986677 ) ;
#76 = CARTESIAN_POINT ( 'NONE',  ( 8.728703347107833388E-15, -3.061616997868383141E-16, 2.500000000000000000 ) ) ;
#77 = COORDINATED_UNIVERSAL_TIME_OFFSET ( 1, 0, .AHEAD. ) ;
#78 = ADVANCED_FACE ( 'NONE', ( #133 ), #12, .F. ) ;
#79 = CARTESIAN_POINT ( 'NONE',  ( 1.082359215041371340E-14, 0.2084999999999992693, 3.100000000000000089 ) ) ;
#80 = DIRECTION ( 'NONE',  ( 0.0000000000000000000, 1.000000000000000000, 0.0000000000000000000 ) ) ;
#81 = CONICAL_SURFACE ( 'NONE', #247, 0.2084999999999992970, 0.2617993877991427465 ) ;
#82 = DIRECTION ( 'NONE',  ( 0.0000000000000000000, 0.0000000000000000000, 1.000000000000000000 ) ) ;
#83 = EDGE_CURVE ( 'NONE', #236, #236, #142, .T. ) ;
#84 = ORIENTED_EDGE ( 'NONE', *, *, #185, .F. ) ;
#85 = ORIENTED_EDGE ( 'NONE', *, *, #146, .T. ) ;
#86 = APPROVAL_DATE_TIME ( #2, #171 ) ;
#87 = APPROVAL ( #63, 'UNSPECIFIED' ) ;
#88 = EDGE_LOOP ( 'NONE', ( #283 ) ) ;
#89 = DATE_AND_TIME ( #200, #52 ) ;
#90 = DIRECTION ( 'NONE',  ( 3.491481338843133355E-15, -1.224646799147353207E-16, 1.000000000000000000 ) ) ;
#91 = FACE_OUTER_BOUND ( 'NONE', #217, .T. ) ;
#92 = DIRECTION ( 'NONE',  ( -4.275831445896958607E-31, -1.000000000000000000, -1.224646799147353207E-16 ) ) ;
#93 = DIRECTION ( 'NONE',  ( 0.0000000000000000000, -1.000000000000000000, 0.0000000000000000000 ) ) ;
#94 = CARTESIAN_POINT ( 'NONE',  ( 1.117274028429802674E-13, -3.918869757271530263E-15, 32.00000000000000000 ) ) ;
#95 = CONICAL_SURFACE ( 'NONE', #132, 0.8000000000000002665, 0.7853981633974518317 ) ;
#96 = AXIS2_PLACEMENT_3D ( 'NONE', #46, #198, #267 ) ;
#97 = CYLINDRICAL_SURFACE ( 'NONE', #69, 0.2084999999999996023 ) ;
#98 = DIRECTION ( 'NONE',  ( 4.275831445896958607E-31, 1.000000000000000000, 1.224646799147353207E-16 ) ) ;
#99 = APPROVAL_STATUS ( 'not_yet_approved' ) ;
#100 = APPLICATION_CONTEXT ( 'configuration controlled 3d designs of mechanical parts and assemblies' ) ;
#101 = CALENDAR_DATE ( 2021, 16, 12 ) ;
#102 = CARTESIAN_POINT ( 'NONE',  ( 1.117274028429802674E-13, -3.918869757271530263E-15, 32.00000000000000000 ) ) ;
#103 = APPROVAL_PERSON_ORGANIZATION ( #125, #87, #260 ) ;
#104 = CIRCLE ( 'NONE', #258, 0.2084999999999995746 ) ;
#105 = ADVANCED_FACE ( 'NONE', ( #273, #116 ), #97, .T. ) ;
#106 = PERSON_AND_ORGANIZATION ( #225, #212 ) ;
#107 = DIRECTION ( 'NONE',  ( 0.0000000000000000000, 1.000000000000000000, 0.0000000000000000000 ) ) ;
#108 = PERSON_AND_ORGANIZATION ( #225, #212 ) ;
#109 = EDGE_LOOP ( 'NONE', ( #130 ) ) ;
#110 = DIRECTION ( 'NONE',  ( 0.0000000000000000000, 1.000000000000000000, 0.0000000000000000000 ) ) ;
#111 = EDGE_LOOP ( 'NONE', ( #155 ) ) ;
#112 = AXIS2_PLACEMENT_3D ( 'NONE', #182, #229, #32 ) ;
#113 = FACE_OUTER_BOUND ( 'NONE', #244, .T. ) ;
#114 = FACE_OUTER_BOUND ( 'NONE', #263, .T. ) ;
#115 = ADVANCED_FACE ( 'NONE', ( #158, #183 ), #117, .T. ) ;
#116 = FACE_OUTER_BOUND ( 'NONE', #23, .T. ) ;
#117 = CYLINDRICAL_SURFACE ( 'NONE', #129, 0.2084999999999994358 ) ;
#118 = AXIS2_PLACEMENT_3D ( 'NONE', #102, #186, #80 ) ;
#119 = CARTESIAN_POINT ( 'NONE',  ( 0.0000000000000000000, 0.0000000000000000000, 0.0000000000000000000 ) ) ;
#120 = MECHANICAL_CONTEXT ( 'NONE', #100, 'mechanical' ) ;
#121 = COORDINATED_UNIVERSAL_TIME_OFFSET ( 1, 0, .AHEAD. ) ;
#122 = CC_DESIGN_DATE_AND_TIME_ASSIGNMENT ( #89, #175, ( #187 ) ) ;
#123 = PERSON_AND_ORGANIZATION ( #225, #212 ) ;
#124 = ADVANCED_FACE ( 'NONE', ( #209 ), #250, .T. ) ;
#125 = PERSON_AND_ORGANIZATION ( #225, #212 ) ;
#126 = ORIENTED_EDGE ( 'NONE', *, *, #239, .F. ) ;
#127 = CIRCLE ( 'NONE', #35, 0.2084999999999992970 ) ;
#128 = CC_DESIGN_APPROVAL ( #87, ( #248 ) ) ;
#129 = AXIS2_PLACEMENT_3D ( 'NONE', #119, #251, #253 ) ;
#130 = ORIENTED_EDGE ( 'NONE', *, *, #41, .F. ) ;
#131 = DIRECTION ( 'NONE',  ( -3.491481338843133355E-15, 1.224646799147353207E-16, -1.000000000000000000 ) ) ;
#132 = AXIS2_PLACEMENT_3D ( 'NONE', #94, #275, #74 ) ;
#133 = FACE_OUTER_BOUND ( 'NONE', #265, .T. ) ;
#134 = CARTESIAN_POINT ( 'NONE',  ( -1.975409957753975612E-31, 6.928805418071588563E-33, -5.657798985712200969E-17 ) ) ;
#135 = CC_DESIGN_PERSON_AND_ORGANIZATION_ASSIGNMENT ( #39, #18, ( #215 ) ) ;
#136 = FACE_OUTER_BOUND ( 'NONE', #150, .T. ) ;
#137 = DIRECTION ( 'NONE',  ( -3.491481338843133355E-15, 1.224646799147353207E-16, -1.000000000000000000 ) ) ;
#138 = VERTEX_POINT ( 'NONE', #194 ) ;
#139 = CARTESIAN_POINT ( 'NONE',  ( 1.127542308347002316E-14, 0.2255370868554641695, 3.229409522551256018 ) ) ;
#140 = CC_DESIGN_PERSON_AND_ORGANIZATION_ASSIGNMENT ( #108, #45, ( #248 ) ) ;
#141 = CARTESIAN_POINT ( 'NONE',  ( 1.022885281393950355E-15, 0.2084999999999992693, 0.2929659883941619358 ) ) ;
#142 = CIRCLE ( 'NONE', #231, 1.000000000000000444 ) ;
#143 = VERTEX_POINT ( 'NONE', #79 ) ;
#144 = PRODUCT ( '969795', '969795', '', ( #120 ) ) ;
#145 = MANIFOLD_SOLID_BREP ( 'Corps-Déplacer/Copier1[1]', #208 ) ;
#146 = EDGE_CURVE ( 'NONE', #60, #60, #104, .T. ) ;
#147 = CARTESIAN_POINT ( 'NONE',  ( 8.728703347107833388E-15, 0.2084999999999992693, 2.500000000000000000 ) ) ;
#148 = CC_DESIGN_APPROVAL ( #213, ( #215 ) ) ;
#149 = APPROVAL_DATE_TIME ( #65, #87 ) ;
#150 = EDGE_LOOP ( 'NONE', ( #126 ) ) ;
#151 = SHAPE_DEFINITION_REPRESENTATION ( #40, #219 ) ;
#152 = CARTESIAN_POINT ( 'NONE',  ( 8.728703347107833388E-15, -3.061616997868383141E-16, 2.500000000000000000 ) ) ;
#153 = COORDINATED_UNIVERSAL_TIME_OFFSET ( 1, 0, .AHEAD. ) ;
#154 = CC_DESIGN_SECURITY_CLASSIFICATION ( #187, ( #248 ) ) ;
#155 = ORIENTED_EDGE ( 'NONE', *, *, #41, .T. ) ;
#156 = EDGE_LOOP ( 'NONE', ( #3 ) ) ;
#157 = CARTESIAN_POINT ( 'NONE',  ( 0.0000000000000000000, 0.0000000000000000000, 0.0000000000000000000 ) ) ;
#158 = FACE_OUTER_BOUND ( 'NONE', #261, .T. ) ;
#159 = CARTESIAN_POINT ( 'NONE',  ( 1.082359215041371340E-14, -3.796405077356794918E-16, 3.100000000000000089 ) ) ;
#160 = DIRECTION ( 'NONE',  ( 0.0000000000000000000, 1.000000000000000000, 0.0000000000000000000 ) ) ;
#161 = DIRECTION ( 'NONE',  ( 3.491481338843133355E-15, -1.224646799147353207E-16, 1.000000000000000000 ) ) ;
#162 = LOCAL_TIME ( 14, 16, 23.00000000000000000, #220 ) ;
#163 = ADVANCED_FACE ( 'NONE', ( #53, #114 ), #81, .T. ) ;
#164 = UNCERTAINTY_MEASURE_WITH_UNIT (LENGTH_MEASURE( 1.000000000000000082E-05 ), #19, 'distance_accuracy_value', 'NONE');
#165 = DATE_AND_TIME ( #101, #21 ) ;
#166 = VERTEX_POINT ( 'NONE', #188 ) ;
#167 = PRODUCT_RELATED_PRODUCT_CATEGORY ( 'detail', '', ( #144 ) ) ;
#168 =( NAMED_UNIT ( * ) SI_UNIT ( $, .STERADIAN. ) SOLID_ANGLE_UNIT ( ) );
#169 = CARTESIAN_POINT ( 'NONE',  ( 0.0000000000000000000, 0.0000000000000000000, 0.0000000000000000000 ) ) ;
#170 = ORIENTED_EDGE ( 'NONE', *, *, #83, .F. ) ;
#171 = APPROVAL ( #262, 'UNSPECIFIED' ) ;
#172 = SECURITY_CLASSIFICATION_LEVEL ( 'unclassified' ) ;
#173 = CARTESIAN_POINT ( 'NONE',  ( 8.728703347107833388E-15, 1.563499573424978605E-33, 2.500000000000000000 ) ) ;
#174 = EDGE_LOOP ( 'NONE', ( #84 ) ) ;
#175 = DATE_TIME_ROLE ( 'classification_date' ) ;
#176 = DIRECTION ( 'NONE',  ( -4.275831445896958607E-31, -1.000000000000000000, -1.224646799147353207E-16 ) ) ;
#177 = EDGE_LOOP ( 'NONE', ( #6 ) ) ;
#178 = APPLICATION_CONTEXT ( 'configuration controlled 3d designs of mechanical parts and assemblies' ) ;
#179 = FACE_OUTER_BOUND ( 'NONE', #156, .T. ) ;
#180 = DIRECTION ( 'NONE',  ( -3.491481338843133355E-15, 1.224646799147353207E-16, -1.000000000000000000 ) ) ;
#181 = AXIS2_PLACEMENT_3D ( 'NONE', #169, #62, #259 ) ;
#182 = CARTESIAN_POINT ( 'NONE',  ( 2.136697359099907846E-14, -7.494525468193742769E-16, 6.119744462984529676 ) ) ;
#183 = FACE_OUTER_BOUND ( 'NONE', #111, .T. ) ;
#184 = DIRECTION ( 'NONE',  ( 4.275831445896957731E-31, 1.000000000000000000, 1.224646799147353207E-16 ) ) ;
#185 = EDGE_CURVE ( 'NONE', #166, #166, #11, .T. ) ;
#186 = DIRECTION ( 'NONE',  ( -3.491481338843133355E-15, 1.224646799147353207E-16, -1.000000000000000000 ) ) ;
#187 = SECURITY_CLASSIFICATION ( '', '', #172 ) ;
#188 = CARTESIAN_POINT ( 'NONE',  ( -1.419551869787370853E-31, 0.1300000000000000044, -4.065758146820641628E-17 ) ) ;
#189 = DATE_TIME_ROLE ( 'creation_date' ) ;
#190 = CARTESIAN_POINT ( 'NONE',  ( 1.110291065752116407E-13, 0.9999999999999965583, 31.80000000000000071 ) ) ;
#191 = AXIS2_PLACEMENT_3D ( 'NONE', #71, #161, #204 ) ;
#192 = CIRCLE ( 'NONE', #118, 0.8000000000000002665 ) ;
#193 = AXIS2_PLACEMENT_3D ( 'NONE', #152, #223, #107 ) ;
#194 = CARTESIAN_POINT ( 'NONE',  ( 2.136697359099907846E-14, 0.9999999999999961142, 6.119744462984529676 ) ) ;
#195 = ORIENTED_EDGE ( 'NONE', *, *, #202, .T. ) ;
#196 = ADVANCED_FACE ( 'NONE', ( #179 ), #8, .F. ) ;
#197 = CALENDAR_DATE ( 2021, 16, 12 ) ;
#198 = DIRECTION ( 'NONE',  ( -3.491481338843133355E-15, 1.224646799147353207E-16, -1.000000000000000000 ) ) ;
#199 = AXIS2_PLACEMENT_3D ( 'NONE', #159, #252, #55 ) ;
#200 = CALENDAR_DATE ( 2021, 16, 12 ) ;
#201 = ORIENTED_EDGE ( 'NONE', *, *, #272, .F. ) ;
#202 = EDGE_CURVE ( 'NONE', #240, #240, #67, .T. ) ;
#203 = EDGE_LOOP ( 'NONE', ( #195 ) ) ;
#204 = DIRECTION ( 'NONE',  ( -4.275831445896958607E-31, -1.000000000000000000, -1.224646799147353207E-16 ) ) ;
#205 = FACE_OUTER_BOUND ( 'NONE', #66, .T. ) ;
#206 = AXIS2_PLACEMENT_3D ( 'NONE', #29, #227, #276 ) ;
#207 = FACE_OUTER_BOUND ( 'NONE', #177, .T. ) ;
#208 = CLOSED_SHELL ( 'NONE', ( #54, #105, #38, #218, #270, #241, #78 ) ) ;
#209 = FACE_OUTER_BOUND ( 'NONE', #109, .T. ) ;
#210 = DESIGN_CONTEXT ( 'detailed design', #178, 'design' ) ;
#211 = CALENDAR_DATE ( 2021, 16, 12 ) ;
#212 = ORGANIZATION ( 'UNSPECIFIED', 'UNSPECIFIED', '' ) ;
#213 = APPROVAL ( #99, 'UNSPECIFIED' ) ;
#214 = CARTESIAN_POINT ( 'NONE',  ( 0.0000000000000000000, 0.0000000000000000000, 0.0000000000000000000 ) ) ;
#215 = PRODUCT_DEFINITION ( 'UNKNOWN', '', #248, #210 ) ;
#216 = ORIENTED_EDGE ( 'NONE', *, *, #272, .T. ) ;
#217 = EDGE_LOOP ( 'NONE', ( #28 ) ) ;
#218 = ADVANCED_FACE ( 'NONE', ( #254, #113 ), #16, .T. ) ;
#219 = ADVANCED_BREP_SHAPE_REPRESENTATION ( '969795', ( #145, #51, #10 ), #268 ) ;
#220 = COORDINATED_UNIVERSAL_TIME_OFFSET ( 1, 0, .AHEAD. ) ;
#221 = DIRECTION ( 'NONE',  ( -3.491481338843133355E-15, 1.224646799147353207E-16, -1.000000000000000000 ) ) ;
#222 = CC_DESIGN_PERSON_AND_ORGANIZATION_ASSIGNMENT ( #4, #264, ( #187 ) ) ;
#223 = DIRECTION ( 'NONE',  ( -3.491481338843133355E-15, 1.224646799147353207E-16, -1.000000000000000000 ) ) ;
#224 = CALENDAR_DATE ( 2021, 16, 12 ) ;
#225 = PERSON ( 'UNSPECIFIED', 'UNSPECIFIED', 'UNSPECIFIED', ('UNSPECIFIED'), ('UNSPECIFIED'), ('UNSPECIFIED') ) ;
#226 = EDGE_LOOP ( 'NONE', ( #64 ) ) ;
#227 = DIRECTION ( 'NONE',  ( -3.491481338843133355E-15, 1.224646799147353207E-16, -1.000000000000000000 ) ) ;
#228 = CARTESIAN_POINT ( 'NONE',  ( 1.117274028429802674E-13, 5.999039130647374325E-33, 32.00000000000000000 ) ) ;
#229 = DIRECTION ( 'NONE',  ( -3.491481338843133355E-15, 1.224646799147353207E-16, -1.000000000000000000 ) ) ;
#230 = DIRECTION ( 'NONE',  ( 0.0000000000000000000, 1.000000000000000000, 0.0000000000000000000 ) ) ;
#231 = AXIS2_PLACEMENT_3D ( 'NONE', #36, #131, #160 ) ;
#232 = LOCAL_TIME ( 14, 16, 23.00000000000000000, #121 ) ;
#233 = DIRECTION ( 'NONE',  ( 3.491481338843133355E-15, -1.224646799147353207E-16, 1.000000000000000000 ) ) ;
#234 = AXIS2_PLACEMENT_3D ( 'NONE', #31, #13, #92 ) ;
#235 = VERTEX_POINT ( 'NONE', #20 ) ;
#236 = VERTEX_POINT ( 'NONE', #190 ) ;
#237 = AXIS2_PLACEMENT_3D ( 'NONE', #228, #180, #98 ) ;
#238 = VERTEX_POINT ( 'NONE', #141 ) ;
#239 = EDGE_CURVE ( 'NONE', #138, #138, #24, .T. ) ;
#240 = VERTEX_POINT ( 'NONE', #139 ) ;
#241 = ADVANCED_FACE ( 'NONE', ( #205, #9 ), #95, .T. ) ;
#242 = PERSON_AND_ORGANIZATION ( #225, #212 ) ;
#243 = PERSON_AND_ORGANIZATION_ROLE ( 'creator' ) ;
#244 = EDGE_LOOP ( 'NONE', ( #246 ) ) ;
#245 = EDGE_CURVE ( 'NONE', #143, #143, #257, .T. ) ;
#246 = ORIENTED_EDGE ( 'NONE', *, *, #239, .T. ) ;
#247 = AXIS2_PLACEMENT_3D ( 'NONE', #56, #233, #277 ) ;
#248 = PRODUCT_DEFINITION_FORMATION_WITH_SPECIFIED_SOURCE ( 'ANY', '', #144, .NOT_KNOWN. ) ;
#249 = ORIENTED_EDGE ( 'NONE', *, *, #245, .T. ) ;
#250 = PLANE ( 'NONE',  #234 ) ;
#251 = DIRECTION ( 'NONE',  ( -3.491481338843133355E-15, 1.224646799147353207E-16, -1.000000000000000000 ) ) ;
#252 = DIRECTION ( 'NONE',  ( -3.491481338843133355E-15, 1.224646799147353207E-16, -1.000000000000000000 ) ) ;
#253 = DIRECTION ( 'NONE',  ( 4.275831445896958607E-31, 1.000000000000000000, 1.224646799147352961E-16 ) ) ;
#254 = FACE_BOUND ( 'NONE', #88, .T. ) ;
#255 = APPROVAL_DATE_TIME ( #165, #213 ) ;
#256 = CARTESIAN_POINT ( 'NONE',  ( 8.728703347107833388E-15, 0.2084999999999992693, 2.500000000000000000 ) ) ;
#257 = CIRCLE ( 'NONE', #199, 0.2084999999999996578 ) ;
#258 = AXIS2_PLACEMENT_3D ( 'NONE', #76, #33, #230 ) ;
#259 = DIRECTION ( 'NONE',  ( 4.275831445896959482E-31, 1.000000000000000000, 1.224646799147353454E-16 ) ) ;
#260 = APPROVAL_ROLE ( '' ) ;
#261 = EDGE_LOOP ( 'NONE', ( #49 ) ) ;
#262 = APPROVAL_STATUS ( 'not_yet_approved' ) ;
#263 = EDGE_LOOP ( 'NONE', ( #26 ) ) ;
#264 = PERSON_AND_ORGANIZATION_ROLE ( 'classification_officer' ) ;
#265 = EDGE_LOOP ( 'NONE', ( #201 ) ) ;
#266 = APPROVAL_ROLE ( '' ) ;
#267 = DIRECTION ( 'NONE',  ( 4.275831445896958607E-31, 1.000000000000000000, 1.224646799147353207E-16 ) ) ;
#268 =( GEOMETRIC_REPRESENTATION_CONTEXT ( 3 ) GLOBAL_UNCERTAINTY_ASSIGNED_CONTEXT ( ( #164 ) ) GLOBAL_UNIT_ASSIGNED_CONTEXT ( ( #19, #42, #168 ) ) REPRESENTATION_CONTEXT ( 'NONE', 'WORKASPACE' ) );
#269 = FACE_OUTER_BOUND ( 'NONE', #203, .T. ) ;
#270 = ADVANCED_FACE ( 'NONE', ( #136, #207 ), #75, .T. ) ;
#271 = CARTESIAN_POINT ( 'NONE',  ( 2.136697359099907846E-14, -7.494525468193742769E-16, 6.119744462984529676 ) ) ;
#272 = EDGE_CURVE ( 'NONE', #235, #235, #192, .T. ) ;
#273 = FACE_OUTER_BOUND ( 'NONE', #226, .T. ) ;
#274 = CIRCLE ( 'NONE', #193, 0.2084999999999995746 ) ;
#275 = DIRECTION ( 'NONE',  ( -3.491481338843133355E-15, 1.224646799147353207E-16, -1.000000000000000000 ) ) ;
#276 = DIRECTION ( 'NONE',  ( 0.0000000000000000000, 1.000000000000000000, 0.0000000000000000000 ) ) ;
#277 = DIRECTION ( 'NONE',  ( 0.0000000000000000000, -1.000000000000000000, 0.0000000000000000000 ) ) ;
#278 = APPROVAL_ROLE ( '' ) ;
#279 = CC_DESIGN_DATE_AND_TIME_ASSIGNMENT ( #17, #189, ( #215 ) ) ;
#280 = VERTEX_POINT ( 'NONE', #256 ) ;
#281 = PERSON_AND_ORGANIZATION_ROLE ( 'design_owner' ) ;
#282 = CC_DESIGN_APPROVAL ( #171, ( #187 ) ) ;
#283 = ORIENTED_EDGE ( 'NONE', *, *, #202, .F. ) ;
ENDSEC;
END-ISO-10303-21;
