ISO-10303-21;
HEADER;
FILE_DESCRIPTION (( 'STEP AP203' ),
    '1' );
FILE_NAME ('969786.step',
    '2021-11-30T09:37:01',
    ( '' ),
    ( '' ),
    'SwSTEP 2.0',
    'SolidWorks 2019',
    '' );
FILE_SCHEMA (( 'CONFIG_CONTROL_DESIGN' ));
ENDSEC;

DATA;
#1 = PERSON_AND_ORGANIZATION_ROLE ( 'design_supplier' ) ;
#2 =( GEOMETRIC_REPRESENTATION_CONTEXT ( 3 ) GLOBAL_UNCERTAINTY_ASSIGNED_CONTEXT ( ( #69 ) ) GLOBAL_UNIT_ASSIGNED_CONTEXT ( ( #262, #194, #119 ) ) REPRESENTATION_CONTEXT ( 'NONE', 'WORKASPACE' ) );
#3 = ADVANCED_FACE ( 'NONE', ( #247, #225 ), #268, .T. ) ;
#4 = CARTESIAN_POINT ( 'NONE',  ( 8.728703347107833388E-14, -3.061616997868383831E-15, 25.00000000000000000 ) ) ;
#5 = ADVANCED_FACE ( 'NONE', ( #49 ), #205, .F. ) ;
#6 = DIRECTION ( 'NONE',  ( 0.0000000000000000000, 1.000000000000000000, 0.0000000000000000000 ) ) ;
#7 = FACE_OUTER_BOUND ( 'NONE', #48, .T. ) ;
#8 = DIRECTION ( 'NONE',  ( -4.275831445896959482E-31, -1.000000000000000000, -1.224646799147353454E-16 ) ) ;
#9 = DIRECTION ( 'NONE',  ( -3.491481338843133355E-15, 1.224646799147353454E-16, -1.000000000000000000 ) ) ;
#10 = AXIS2_PLACEMENT_3D ( 'NONE', #303, #237, #239 ) ;
#11 = CC_DESIGN_APPROVAL ( #180, ( #284 ) ) ;
#12 = CC_DESIGN_PERSON_AND_ORGANIZATION_ASSIGNMENT ( #241, #1, ( #284 ) ) ;
#13 = CARTESIAN_POINT ( 'NONE',  ( 3.491481338843133355E-14, 1.373499999999998611, 10.00000000000000000 ) ) ;
#14 = ORIENTED_EDGE ( 'NONE', *, *, #99, .T. ) ;
#15 = CARTESIAN_POINT ( 'NONE',  ( 8.728703347107833388E-16, 1.373499999999998611, 0.2500000000000000000 ) ) ;
#16 = CARTESIAN_POINT ( 'NONE',  ( 3.491481338843133355E-14, -1.224646799147353454E-15, 10.00000000000000000 ) ) ;
#17 = LOCAL_TIME ( 10, 37, 1.000000000000000000, #221 ) ;
#18 = CARTESIAN_POINT ( 'NONE',  ( 0.0000000000000000000, 0.0000000000000000000, 0.0000000000000000000 ) ) ;
#19 = EDGE_LOOP ( 'NONE', ( #200 ) ) ;
#20 = DIRECTION ( 'NONE',  ( 0.0000000000000000000, 1.000000000000000000, 0.0000000000000000000 ) ) ;
#21 = EDGE_LOOP ( 'NONE', ( #215 ) ) ;
#22 = APPLICATION_PROTOCOL_DEFINITION ( 'international standard', 'config_control_design', 1994, #94 ) ;
#23 = APPROVAL_STATUS ( 'not_yet_approved' ) ;
#24 = EDGE_CURVE ( 'NONE', #234, #234, #109, .T. ) ;
#25 = AXIS2_PLACEMENT_3D ( 'NONE', #4, #129, #6 ) ;
#26 = PERSON_AND_ORGANIZATION_ROLE ( 'classification_officer' ) ;
#27 = AXIS2_PLACEMENT_3D ( 'NONE', #37, #144, #166 ) ;
#28 = PRODUCT_RELATED_PRODUCT_CATEGORY ( 'detail', '', ( #298 ) ) ;
#29 = FACE_OUTER_BOUND ( 'NONE', #281, .T. ) ;
#30 = CIRCLE ( 'NONE', #25, 1.175000000000000266 ) ;
#31 = CARTESIAN_POINT ( 'NONE',  ( 3.611522686833350719E-14, -1.266751636124733055E-15, 10.34381208530242979 ) ) ;
#32 = DATE_TIME_ROLE ( 'classification_date' ) ;
#33 = ORIENTED_EDGE ( 'NONE', *, *, #175, .F. ) ;
#34 = DIRECTION ( 'NONE',  ( 0.0000000000000000000, 1.000000000000000000, 0.0000000000000000000 ) ) ;
#35 = CC_DESIGN_DATE_AND_TIME_ASSIGNMENT ( #44, #240, ( #214 ) ) ;
#36 = CARTESIAN_POINT ( 'NONE',  ( 8.849961221477468513E-14, 1.205384493975577342, 25.34729635533384240 ) ) ;
#37 = CARTESIAN_POINT ( 'NONE',  ( 8.728703347107827472E-16, -3.061616997868381785E-17, 0.2499999999999998335 ) ) ;
#38 = CARTESIAN_POINT ( 'NONE',  ( 3.611522686833350719E-14, 1.174999999999996936, 10.34381208530242979 ) ) ;
#39 = DIRECTION ( 'NONE',  ( 4.275831445896959482E-31, 1.000000000000000000, 1.224646799147353454E-16 ) ) ;
#40 = EDGE_LOOP ( 'NONE', ( #145 ) ) ;
#41 = CALENDAR_DATE ( 2021, 30, 11 ) ;
#42 = ADVANCED_FACE ( 'NONE', ( #153, #101 ), #45, .T. ) ;
#43 = COORDINATED_UNIVERSAL_TIME_OFFSET ( 1, 0, .AHEAD. ) ;
#44 = DATE_AND_TIME ( #149, #120 ) ;
#45 = CONICAL_SURFACE ( 'NONE', #78, 1.200000000000001510, 0.7853981633974453924 ) ;
#46 = AXIS2_PLACEMENT_3D ( 'NONE', #16, #110, #114 ) ;
#47 = SHAPE_DEFINITION_REPRESENTATION ( #261, #126 ) ;
#48 = EDGE_LOOP ( 'NONE', ( #63 ) ) ;
#49 = FACE_OUTER_BOUND ( 'NONE', #168, .T. ) ;
#50 = DIRECTION ( 'NONE',  ( -3.491481338843133355E-15, 1.224646799147353454E-16, -1.000000000000000000 ) ) ;
#51 = AXIS2_PLACEMENT_3D ( 'NONE', #271, #53, #8 ) ;
#52 = EDGE_LOOP ( 'NONE', ( #14 ) ) ;
#53 = DIRECTION ( 'NONE',  ( 3.491481338843133355E-15, -1.224646799147353454E-16, 1.000000000000000000 ) ) ;
#54 = CARTESIAN_POINT ( 'NONE',  ( 9.433334530136821381E-14, 1.499999999999992673, 27.01814391842764351 ) ) ;
#55 = VERTEX_POINT ( 'NONE', #54 ) ;
#56 = CC_DESIGN_PERSON_AND_ORGANIZATION_ASSIGNMENT ( #263, #146, ( #214 ) ) ;
#57 = EDGE_LOOP ( 'NONE', ( #116 ) ) ;
#58 = DIRECTION ( 'NONE',  ( -3.491481338843133355E-15, 1.224646799147353454E-16, -1.000000000000000000 ) ) ;
#59 = PERSON ( 'UNSPECIFIED', 'UNSPECIFIED', 'UNSPECIFIED', ('UNSPECIFIED'), ('UNSPECIFIED'), ('UNSPECIFIED') ) ;
#60 = DIRECTION ( 'NONE',  ( -3.491481338843133355E-15, 1.224646799147353454E-16, -1.000000000000000000 ) ) ;
#61 = CARTESIAN_POINT ( 'NONE',  ( 2.129803616694311221E-13, 8.998558695971049855E-33, 61.00000000000000000 ) ) ;
#62 = AXIS2_PLACEMENT_3D ( 'NONE', #61, #60, #39 ) ;
#63 = ORIENTED_EDGE ( 'NONE', *, *, #195, .F. ) ;
#64 = EDGE_CURVE ( 'NONE', #117, #117, #218, .T. ) ;
#65 = APPROVAL_ROLE ( '' ) ;
#66 = AXIS2_PLACEMENT_3D ( 'NONE', #18, #164, #83 ) ;
#67 = APPLICATION_PROTOCOL_DEFINITION ( 'international standard', 'config_control_design', 1994, #76 ) ;
#68 = PERSON_AND_ORGANIZATION_ROLE ( 'creator' ) ;
#69 = UNCERTAINTY_MEASURE_WITH_UNIT (LENGTH_MEASURE( 1.000000000000000082E-05 ), #262, 'distance_accuracy_value', 'NONE');
#70 = CLOSED_SHELL ( 'NONE', ( #165, #115, #3, #202, #121, #186, #42, #235 ) ) ;
#71 = LOCAL_TIME ( 10, 37, 1.000000000000000000, #125 ) ;
#72 = APPROVAL_ROLE ( '' ) ;
#73 = CARTESIAN_POINT ( 'NONE',  ( 3.491481338843133355E-14, 1.029960030743029144E-32, 10.00000000000000000 ) ) ;
#74 = APPROVAL_STATUS ( 'not_yet_approved' ) ;
#75 = DIRECTION ( 'NONE',  ( -4.275831445896959482E-31, -1.000000000000000000, -1.224646799147353454E-16 ) ) ;
#76 = APPLICATION_CONTEXT ( 'configuration controlled 3d designs of mechanical parts and assemblies' ) ;
#77 = DIRECTION ( 'NONE',  ( -4.275831445896959482E-31, -1.000000000000000000, -1.224646799147353454E-16 ) ) ;
#78 = AXIS2_PLACEMENT_3D ( 'NONE', #159, #9, #152 ) ;
#79 = CARTESIAN_POINT ( 'NONE',  ( 0.0000000000000000000, 0.0000000000000000000, 0.0000000000000000000 ) ) ;
#80 = DIRECTION ( 'NONE',  ( 4.275831445896959482E-31, 1.000000000000000000, 1.224646799147353454E-16 ) ) ;
#81 = ORIENTED_EDGE ( 'NONE', *, *, #24, .F. ) ;
#82 = FACE_OUTER_BOUND ( 'NONE', #40, .T. ) ;
#83 = DIRECTION ( 'NONE',  ( 4.275831445896960358E-31, 1.000000000000000000, 1.224646799147353454E-16 ) ) ;
#84 = TOROIDAL_SURFACE ( 'NONE', #191, 3.175000000000000266, 2.000000000000000000 ) ;
#85 = DIRECTION ( 'NONE',  ( -3.491481338843133355E-15, 1.224646799147353454E-16, -1.000000000000000000 ) ) ;
#86 = DIRECTION ( 'NONE',  ( 0.0000000000000000000, 1.000000000000000000, 0.0000000000000000000 ) ) ;
#87 = APPROVAL ( #260, 'UNSPECIFIED' ) ;
#88 = ORIENTED_EDGE ( 'NONE', *, *, #147, .T. ) ;
#89 = DATE_AND_TIME ( #193, #266 ) ;
#90 = AXIS2_PLACEMENT_3D ( 'NONE', #213, #183, #20 ) ;
#91 = COORDINATED_UNIVERSAL_TIME_OFFSET ( 1, 0, .AHEAD. ) ;
#92 = MECHANICAL_CONTEXT ( 'NONE', #94, 'mechanical' ) ;
#93 = AXIS2_PLACEMENT_3D ( 'NONE', #220, #97, #222 ) ;
#94 = APPLICATION_CONTEXT ( 'configuration controlled 3d designs of mechanical parts and assemblies' ) ;
#95 = APPROVAL ( #74, 'UNSPECIFIED' ) ;
#96 = DIRECTION ( 'NONE',  ( -3.491481338843133355E-15, 1.224646799147353454E-16, -1.000000000000000000 ) ) ;
#97 = DIRECTION ( 'NONE',  ( -3.491481338843133355E-15, 1.224646799147353454E-16, -1.000000000000000000 ) ) ;
#98 = PLANE ( 'NONE',  #280 ) ;
#99 = EDGE_CURVE ( 'NONE', #140, #140, #130, .T. ) ;
#100 = DATE_AND_TIME ( #267, #71 ) ;
#101 = FACE_BOUND ( 'NONE', #52, .T. ) ;
#102 = AXIS2_PLACEMENT_3D ( 'NONE', #73, #289, #77 ) ;
#103 = DIRECTION ( 'NONE',  ( 3.491481338843133355E-15, -1.224646799147353454E-16, 1.000000000000000000 ) ) ;
#104 = AXIS2_PLACEMENT_3D ( 'NONE', #295, #85, #137 ) ;
#105 = ORIENTED_EDGE ( 'NONE', *, *, #270, .F. ) ;
#106 = FACE_OUTER_BOUND ( 'NONE', #276, .T. ) ;
#107 = EDGE_LOOP ( 'NONE', ( #206 ) ) ;
#108 = VERTEX_POINT ( 'NONE', #293 ) ;
#109 = CIRCLE ( 'NONE', #93, 1.229162432702594288 ) ;
#110 = DIRECTION ( 'NONE',  ( -3.491481338843133355E-15, 1.224646799147353454E-16, -1.000000000000000000 ) ) ;
#111 = AXIS2_PLACEMENT_3D ( 'NONE', #226, #103, #172 ) ;
#112 = CIRCLE ( 'NONE', #252, 1.373499999999998611 ) ;
#113 = MANIFOLD_SOLID_BREP ( 'Corps-Déplacer/Copier1[1]', #70 ) ;
#114 = DIRECTION ( 'NONE',  ( 0.0000000000000000000, 1.000000000000000000, 0.0000000000000000000 ) ) ;
#115 = ADVANCED_FACE ( 'NONE', ( #133, #269 ), #142, .T. ) ;
#116 = ORIENTED_EDGE ( 'NONE', *, *, #270, .T. ) ;
#117 = VERTEX_POINT ( 'NONE', #38 ) ;
#118 = EDGE_LOOP ( 'NONE', ( #105 ) ) ;
#119 =( NAMED_UNIT ( * ) SI_UNIT ( $, .STERADIAN. ) SOLID_ANGLE_UNIT ( ) );
#120 = LOCAL_TIME ( 10, 37, 1.000000000000000000, #43 ) ;
#121 = ADVANCED_FACE ( 'NONE', ( #132, #224 ), #208, .T. ) ;
#122 = APPROVAL_DATE_TIME ( #169, #180 ) ;
#123 = MANIFOLD_SOLID_BREP ( 'Corps-Déplacer/Copier1[2]', #257 ) ;
#124 = AXIS2_PLACEMENT_3D ( 'NONE', #31, #50, #131 ) ;
#125 = COORDINATED_UNIVERSAL_TIME_OFFSET ( 1, 0, .AHEAD. ) ;
#126 = ADVANCED_BREP_SHAPE_REPRESENTATION ( '969786', ( #113, #123, #10 ), #2 ) ;
#127 = DESIGN_CONTEXT ( 'detailed design', #76, 'design' ) ;
#128 = DIRECTION ( 'NONE',  ( 4.275831445896959482E-31, 1.000000000000000000, 1.224646799147353454E-16 ) ) ;
#129 = DIRECTION ( 'NONE',  ( -3.491481338843133355E-15, 1.224646799147353454E-16, -1.000000000000000000 ) ) ;
#130 = CIRCLE ( 'NONE', #294, 1.200000000000001510 ) ;
#131 = DIRECTION ( 'NONE',  ( 0.0000000000000000000, 1.000000000000000000, 0.0000000000000000000 ) ) ;
#132 = FACE_BOUND ( 'NONE', #244, .T. ) ;
#133 = FACE_OUTER_BOUND ( 'NONE', #255, .T. ) ;
#134 = EDGE_CURVE ( 'NONE', #277, #277, #30, .T. ) ;
#135 = ORIENTED_EDGE ( 'NONE', *, *, #147, .F. ) ;
#136 = CIRCLE ( 'NONE', #216, 1.373499999999999943 ) ;
#137 = DIRECTION ( 'NONE',  ( 4.275831445896959482E-31, 1.000000000000000000, 1.224646799147353454E-16 ) ) ;
#138 = VERTEX_POINT ( 'NONE', #231 ) ;
#139 = DIRECTION ( 'NONE',  ( -3.491481338843133355E-15, 1.224646799147353454E-16, -1.000000000000000000 ) ) ;
#140 = VERTEX_POINT ( 'NONE', #275 ) ;
#141 = CC_DESIGN_PERSON_AND_ORGANIZATION_ASSIGNMENT ( #192, #283, ( #298 ) ) ;
#142 = CONICAL_SURFACE ( 'NONE', #124, 1.174999999999998268, 0.5235987755982938197 ) ;
#143 = CC_DESIGN_SECURITY_CLASSIFICATION ( #204, ( #284 ) ) ;
#144 = DIRECTION ( 'NONE',  ( 3.491481338843133355E-15, -1.224646799147353454E-16, 1.000000000000000000 ) ) ;
#145 = ORIENTED_EDGE ( 'NONE', *, *, #99, .F. ) ;
#146 = PERSON_AND_ORGANIZATION_ROLE ( 'creator' ) ;
#147 = EDGE_CURVE ( 'NONE', #55, #55, #203, .T. ) ;
#148 = SECURITY_CLASSIFICATION_LEVEL ( 'unclassified' ) ;
#149 = CALENDAR_DATE ( 2021, 30, 11 ) ;
#150 = APPROVAL_DATE_TIME ( #89, #87 ) ;
#151 = ADVANCED_FACE ( 'NONE', ( #7 ), #286, .T. ) ;
#152 = DIRECTION ( 'NONE',  ( 0.0000000000000000000, 1.000000000000000000, 0.0000000000000000000 ) ) ;
#153 = FACE_OUTER_BOUND ( 'NONE', #19, .T. ) ;
#154 = CC_DESIGN_PERSON_AND_ORGANIZATION_ASSIGNMENT ( #217, #68, ( #284 ) ) ;
#155 = PERSON_AND_ORGANIZATION ( #59, #178 ) ;
#156 = DIRECTION ( 'NONE',  ( -3.491481338843133355E-15, 1.224646799147353454E-16, -1.000000000000000000 ) ) ;
#157 = CC_DESIGN_APPROVAL ( #87, ( #214 ) ) ;
#158 = APPROVAL_DATE_TIME ( #246, #95 ) ;
#159 = CARTESIAN_POINT ( 'NONE',  ( 2.129803616694311221E-13, -7.470345474798856659E-15, 61.00000000000000000 ) ) ;
#160 = CARTESIAN_POINT ( 'NONE',  ( 3.611522686833350719E-14, -1.266751636124733055E-15, 10.34381208530242979 ) ) ;
#161 = FACE_OUTER_BOUND ( 'NONE', #291, .T. ) ;
#162 = CC_DESIGN_DATE_AND_TIME_ASSIGNMENT ( #100, #32, ( #204 ) ) ;
#163 = CARTESIAN_POINT ( 'NONE',  ( -3.785471652766321837E-31, 1.229162432702594288, -1.084202172485504187E-16 ) ) ;
#164 = DIRECTION ( 'NONE',  ( -3.491481338843133355E-15, 1.224646799147353454E-16, -1.000000000000000000 ) ) ;
#165 = ADVANCED_FACE ( 'NONE', ( #29 ), #98, .F. ) ;
#166 = DIRECTION ( 'NONE',  ( -4.206618007398407796E-31, -1.000000000000000000, -1.184057705663092984E-16 ) ) ;
#167 = CARTESIAN_POINT ( 'NONE',  ( 8.728703347107827472E-16, -3.061616997868381785E-17, 0.2499999999999998335 ) ) ;
#168 = EDGE_LOOP ( 'NONE', ( #259 ) ) ;
#169 = DATE_AND_TIME ( #41, #209 ) ;
#170 = PERSON_AND_ORGANIZATION ( #59, #178 ) ;
#171 = EDGE_CURVE ( 'NONE', #251, #251, #300, .T. ) ;
#172 = DIRECTION ( 'NONE',  ( 0.0000000000000000000, -1.000000000000000000, 0.0000000000000000000 ) ) ;
#173 = APPROVAL_PERSON_ORGANIZATION ( #170, #87, #299 ) ;
#174 = DIRECTION ( 'NONE',  ( -3.491481338843133355E-15, 1.224646799147353454E-16, -1.000000000000000000 ) ) ;
#175 = EDGE_CURVE ( 'NONE', #229, #229, #238, .T. ) ;
#176 = EDGE_LOOP ( 'NONE', ( #290 ) ) ;
#177 = CARTESIAN_POINT ( 'NONE',  ( 8.849961221477468513E-14, -3.104148534859897150E-15, 25.34729635533384240 ) ) ;
#178 = ORGANIZATION ( 'UNSPECIFIED', 'UNSPECIFIED', '' ) ;
#179 = EDGE_LOOP ( 'NONE', ( #245 ) ) ;
#180 = APPROVAL ( #23, 'UNSPECIFIED' ) ;
#181 = CARTESIAN_POINT ( 'NONE',  ( 8.728703347107833388E-14, 1.174999999999997158, 25.00000000000000000 ) ) ;
#182 = ORIENTED_EDGE ( 'NONE', *, *, #175, .T. ) ;
#183 = DIRECTION ( 'NONE',  ( -3.491481338843133355E-15, 1.224646799147353454E-16, -1.000000000000000000 ) ) ;
#184 = EDGE_LOOP ( 'NONE', ( #212 ) ) ;
#185 = CARTESIAN_POINT ( 'NONE',  ( 8.728703347107833388E-14, -3.035766082959412415E-15, 25.00000000000000000 ) ) ;
#186 = ADVANCED_FACE ( 'NONE', ( #106, #161 ), #292, .T. ) ;
#187 = DIRECTION ( 'NONE',  ( 4.206618007398407796E-31, 1.000000000000000000, 1.184057705663092984E-16 ) ) ;
#188 = CARTESIAN_POINT ( 'NONE',  ( 3.491481338843133355E-14, -1.224646799147353454E-15, 10.00000000000000000 ) ) ;
#189 = EDGE_LOOP ( 'NONE', ( #81 ) ) ;
#190 = AXIS2_PLACEMENT_3D ( 'NONE', #79, #156, #128 ) ;
#191 = AXIS2_PLACEMENT_3D ( 'NONE', #185, #139, #80 ) ;
#192 = PERSON_AND_ORGANIZATION ( #59, #178 ) ;
#193 = CALENDAR_DATE ( 2021, 30, 11 ) ;
#194 =( NAMED_UNIT ( * ) PLANE_ANGLE_UNIT ( ) SI_UNIT ( $, .RADIAN. ) );
#195 = EDGE_CURVE ( 'NONE', #138, #138, #136, .T. ) ;
#196 = PERSON_AND_ORGANIZATION ( #59, #178 ) ;
#197 = DIRECTION ( 'NONE',  ( 0.0000000000000000000, 1.000000000000000000, 0.0000000000000000000 ) ) ;
#198 = APPROVAL_PERSON_ORGANIZATION ( #282, #180, #65 ) ;
#199 = CARTESIAN_POINT ( 'NONE',  ( 3.491481338843133355E-14, 1.029960030743029144E-32, 10.00000000000000000 ) ) ;
#200 = ORIENTED_EDGE ( 'NONE', *, *, #302, .F. ) ;
#201 = EDGE_LOOP ( 'NONE', ( #233 ) ) ;
#202 = ADVANCED_FACE ( 'NONE', ( #254, #297 ), #84, .F. ) ;
#203 = CIRCLE ( 'NONE', #272, 1.499999999999996003 ) ;
#204 = SECURITY_CLASSIFICATION ( '', '', #148 ) ;
#205 = PLANE ( 'NONE',  #51 ) ;
#206 = ORIENTED_EDGE ( 'NONE', *, *, #134, .F. ) ;
#207 = VERTEX_POINT ( 'NONE', #15 ) ;
#208 = CONICAL_SURFACE ( 'NONE', #111, 1.499999999999996003, 0.1745329251994267306 ) ;
#209 = LOCAL_TIME ( 10, 37, 1.000000000000000000, #91 ) ;
#210 = FACE_OUTER_BOUND ( 'NONE', #21, .T. ) ;
#211 = FACE_OUTER_BOUND ( 'NONE', #118, .T. ) ;
#212 = ORIENTED_EDGE ( 'NONE', *, *, #171, .T. ) ;
#213 = CARTESIAN_POINT ( 'NONE',  ( 2.119329172677781757E-13, -7.433606070824434221E-15, 60.69999999999999574 ) ) ;
#214 = PRODUCT_DEFINITION ( 'UNKNOWN', '', #284, #127 ) ;
#215 = ORIENTED_EDGE ( 'NONE', *, *, #195, .T. ) ;
#216 = AXIS2_PLACEMENT_3D ( 'NONE', #188, #58, #279 ) ;
#217 = PERSON_AND_ORGANIZATION ( #59, #178 ) ;
#218 = CIRCLE ( 'NONE', #227, 1.174999999999998268 ) ;
#219 = CC_DESIGN_APPROVAL ( #95, ( #204 ) ) ;
#220 = CARTESIAN_POINT ( 'NONE',  ( -9.041163034631279067E-31, 3.171213103089143054E-32, -2.589492011326910517E-16 ) ) ;
#221 = COORDINATED_UNIVERSAL_TIME_OFFSET ( 1, 0, .AHEAD. ) ;
#222 = DIRECTION ( 'NONE',  ( 4.275831445896959482E-31, 1.000000000000000000, 1.224646799147353454E-16 ) ) ;
#223 = CIRCLE ( 'NONE', #90, 1.500000000000001332 ) ;
#224 = FACE_OUTER_BOUND ( 'NONE', #301, .T. ) ;
#225 = FACE_OUTER_BOUND ( 'NONE', #179, .T. ) ;
#226 = CARTESIAN_POINT ( 'NONE',  ( 9.433334530136821381E-14, -3.308768346860494746E-15, 27.01814391842764351 ) ) ;
#227 = AXIS2_PLACEMENT_3D ( 'NONE', #160, #174, #273 ) ;
#228 = CONICAL_SURFACE ( 'NONE', #27, 1.373499999999998611, 0.5235987755982924874 ) ;
#229 = VERTEX_POINT ( 'NONE', #13 ) ;
#230 = ORIENTED_EDGE ( 'NONE', *, *, #171, .F. ) ;
#231 = CARTESIAN_POINT ( 'NONE',  ( 3.491481338843133355E-14, 1.373499999999998611, 10.00000000000000000 ) ) ;
#232 = PLANE ( 'NONE',  #62 ) ;
#233 = ORIENTED_EDGE ( 'NONE', *, *, #64, .T. ) ;
#234 = VERTEX_POINT ( 'NONE', #163 ) ;
#235 = ADVANCED_FACE ( 'NONE', ( #82 ), #232, .F. ) ;
#236 = ORIENTED_EDGE ( 'NONE', *, *, #302, .T. ) ;
#237 = DIRECTION ( 'NONE',  ( 0.0000000000000000000, 0.0000000000000000000, 1.000000000000000000 ) ) ;
#238 = CIRCLE ( 'NONE', #46, 1.373499999999999943 ) ;
#239 = DIRECTION ( 'NONE',  ( 1.000000000000000000, 0.0000000000000000000, 0.0000000000000000000 ) ) ;
#240 = DATE_TIME_ROLE ( 'creation_date' ) ;
#241 = PERSON_AND_ORGANIZATION ( #59, #178 ) ;
#242 = APPROVAL_PERSON_ORGANIZATION ( #155, #95, #72 ) ;
#243 = CALENDAR_DATE ( 2021, 30, 11 ) ;
#244 = EDGE_LOOP ( 'NONE', ( #230 ) ) ;
#245 = ORIENTED_EDGE ( 'NONE', *, *, #134, .T. ) ;
#246 = DATE_AND_TIME ( #243, #17 ) ;
#247 = FACE_OUTER_BOUND ( 'NONE', #176, .T. ) ;
#248 = ADVANCED_FACE ( 'NONE', ( #211, #210 ), #256, .T. ) ;
#249 = DIRECTION ( 'NONE',  ( -3.491481338843133355E-15, 1.224646799147353454E-16, -1.000000000000000000 ) ) ;
#250 = CARTESIAN_POINT ( 'NONE',  ( 2.129803616694311221E-13, -7.470345474798856659E-15, 61.00000000000000000 ) ) ;
#251 = VERTEX_POINT ( 'NONE', #36 ) ;
#252 = AXIS2_PLACEMENT_3D ( 'NONE', #167, #274, #187 ) ;
#253 = DIRECTION ( 'NONE',  ( -3.491481338843133355E-15, 1.224646799147353454E-16, -1.000000000000000000 ) ) ;
#254 = FACE_OUTER_BOUND ( 'NONE', #107, .T. ) ;
#255 = EDGE_LOOP ( 'NONE', ( #33 ) ) ;
#256 = CYLINDRICAL_SURFACE ( 'NONE', #104, 1.373499999999999277 ) ;
#257 = CLOSED_SHELL ( 'NONE', ( #5, #296, #248, #151 ) ) ;
#258 = FACE_OUTER_BOUND ( 'NONE', #57, .T. ) ;
#259 = ORIENTED_EDGE ( 'NONE', *, *, #24, .T. ) ;
#260 = APPROVAL_STATUS ( 'not_yet_approved' ) ;
#261 = PRODUCT_DEFINITION_SHAPE ( 'NONE', 'NONE',  #214 ) ;
#262 =( LENGTH_UNIT ( ) NAMED_UNIT ( * ) SI_UNIT ( .MILLI., .METRE. ) );
#263 = PERSON_AND_ORGANIZATION ( #59, #178 ) ;
#264 = CARTESIAN_POINT ( 'NONE',  ( 9.433334530136821381E-14, -3.308768346860494746E-15, 27.01814391842764351 ) ) ;
#265 = CC_DESIGN_PERSON_AND_ORGANIZATION_ASSIGNMENT ( #196, #26, ( #204 ) ) ;
#266 = LOCAL_TIME ( 10, 37, 1.000000000000000000, #285 ) ;
#267 = CALENDAR_DATE ( 2021, 30, 11 ) ;
#268 = CYLINDRICAL_SURFACE ( 'NONE', #190, 1.174999999999999378 ) ;
#269 = FACE_BOUND ( 'NONE', #201, .T. ) ;
#270 = EDGE_CURVE ( 'NONE', #207, #207, #112, .T. ) ;
#271 = CARTESIAN_POINT ( 'NONE',  ( -4.520581517315639534E-31, 1.585606551544571527E-32, -1.294746005663455259E-16 ) ) ;
#272 = AXIS2_PLACEMENT_3D ( 'NONE', #264, #96, #197 ) ;
#273 = DIRECTION ( 'NONE',  ( 0.0000000000000000000, 1.000000000000000000, 0.0000000000000000000 ) ) ;
#274 = DIRECTION ( 'NONE',  ( -3.491481338843133355E-15, 1.224646799147353454E-16, -1.000000000000000000 ) ) ;
#275 = CARTESIAN_POINT ( 'NONE',  ( 2.129803616694311221E-13, 1.199999999999993960, 61.00000000000000000 ) ) ;
#276 = EDGE_LOOP ( 'NONE', ( #135 ) ) ;
#277 = VERTEX_POINT ( 'NONE', #181 ) ;
#278 = FACE_BOUND ( 'NONE', #189, .T. ) ;
#279 = DIRECTION ( 'NONE',  ( 0.0000000000000000000, 1.000000000000000000, 0.0000000000000000000 ) ) ;
#280 = AXIS2_PLACEMENT_3D ( 'NONE', #199, #288, #75 ) ;
#281 = EDGE_LOOP ( 'NONE', ( #182 ) ) ;
#282 = PERSON_AND_ORGANIZATION ( #59, #178 ) ;
#283 = PERSON_AND_ORGANIZATION_ROLE ( 'design_owner' ) ;
#284 = PRODUCT_DEFINITION_FORMATION_WITH_SPECIFIED_SOURCE ( 'ANY', '', #298, .NOT_KNOWN. ) ;
#285 = COORDINATED_UNIVERSAL_TIME_OFFSET ( 1, 0, .AHEAD. ) ;
#286 = PLANE ( 'NONE',  #102 ) ;
#287 = AXIS2_PLACEMENT_3D ( 'NONE', #177, #253, #86 ) ;
#288 = DIRECTION ( 'NONE',  ( 3.491481338843133355E-15, -1.224646799147353454E-16, 1.000000000000000000 ) ) ;
#289 = DIRECTION ( 'NONE',  ( 3.491481338843133355E-15, -1.224646799147353454E-16, 1.000000000000000000 ) ) ;
#290 = ORIENTED_EDGE ( 'NONE', *, *, #64, .F. ) ;
#291 = EDGE_LOOP ( 'NONE', ( #236 ) ) ;
#292 = CYLINDRICAL_SURFACE ( 'NONE', #66, 1.499999999999998668 ) ;
#293 = CARTESIAN_POINT ( 'NONE',  ( 2.119329172677781757E-13, 1.499999999999994005, 60.69999999999999574 ) ) ;
#294 = AXIS2_PLACEMENT_3D ( 'NONE', #250, #249, #34 ) ;
#295 = CARTESIAN_POINT ( 'NONE',  ( 0.0000000000000000000, 0.0000000000000000000, 0.0000000000000000000 ) ) ;
#296 = ADVANCED_FACE ( 'NONE', ( #278, #258 ), #228, .T. ) ;
#297 = FACE_OUTER_BOUND ( 'NONE', #184, .T. ) ;
#298 = PRODUCT ( '969786', '969786', '', ( #92 ) ) ;
#299 = APPROVAL_ROLE ( '' ) ;
#300 = CIRCLE ( 'NONE', #287, 1.205384493975580451 ) ;
#301 = EDGE_LOOP ( 'NONE', ( #88 ) ) ;
#302 = EDGE_CURVE ( 'NONE', #108, #108, #223, .T. ) ;
#303 = CARTESIAN_POINT ( 'NONE',  ( 0.0000000000000000000, 0.0000000000000000000, 0.0000000000000000000 ) ) ;
ENDSEC;
END-ISO-10303-21;
