ISO-10303-21;
HEADER;
FILE_DESCRIPTION (( 'STEP AP203' ),
    '1' );
FILE_NAME ('969543.step',
    '2021-12-01T07:27:30',
    ( '' ),
    ( '' ),
    'SwSTEP 2.0',
    'SolidWorks 2019',
    '' );
FILE_SCHEMA (( 'CONFIG_CONTROL_DESIGN' ));
ENDSEC;

DATA;
#1 = APPROVAL_STATUS ( 'not_yet_approved' ) ;
#2 = CARTESIAN_POINT ( 'NONE',  ( 1.047444401652940007E-14, 1.462265788095303710E-33, 3.000000000000000000 ) ) ;
#3 = COORDINATED_UNIVERSAL_TIME_OFFSET ( 1, 0, .AHEAD. ) ;
#4 = EDGE_LOOP ( 'NONE', ( #100 ) ) ;
#5 = LOCAL_TIME ( 8, 27, 30.00000000000000000, #163 ) ;
#6 = EDGE_LOOP ( 'NONE', ( #24 ) ) ;
#7 = EDGE_CURVE ( 'NONE', #235, #235, #179, .T. ) ;
#8 = PERSON_AND_ORGANIZATION_ROLE ( 'design_owner' ) ;
#9 = PERSON_AND_ORGANIZATION ( #86, #129 ) ;
#10 = DIRECTION ( 'NONE',  ( 4.275831445896957731E-31, 1.000000000000000000, 1.224646799147353207E-16 ) ) ;
#11 = DIRECTION ( 'NONE',  ( -3.491481338843133355E-15, 1.224646799147353207E-16, -1.000000000000000000 ) ) ;
#12 = AXIS2_PLACEMENT_3D ( 'NONE', #136, #232, #130 ) ;
#13 = APPROVAL ( #127, 'UNSPECIFIED' ) ;
#14 = APPROVAL_DATE_TIME ( #155, #13 ) ;
#15 = CARTESIAN_POINT ( 'NONE',  ( 1.326762908760390423E-13, -4.653657836759941941E-15, 38.00000000000000000 ) ) ;
#16 = ADVANCED_FACE ( 'NONE', ( #148 ), #171, .T. ) ;
#17 = FACE_OUTER_BOUND ( 'NONE', #55, .T. ) ;
#18 = AXIS2_PLACEMENT_3D ( 'NONE', #29, #261, #141 ) ;
#19 = CARTESIAN_POINT ( 'NONE',  ( -1.060105844915890082E-31, 3.718350762154750075E-33, -3.036263814794282516E-17 ) ) ;
#20 = EDGE_LOOP ( 'NONE', ( #254 ) ) ;
#21 = CLOSED_SHELL ( 'NONE', ( #224, #230, #48, #16 ) ) ;
#22 = APPROVAL_PERSON_ORGANIZATION ( #161, #181, #108 ) ;
#23 = APPROVAL_DATE_TIME ( #260, #83 ) ;
#24 = ORIENTED_EDGE ( 'NONE', *, *, #279, .F. ) ;
#25 = EDGE_LOOP ( 'NONE', ( #241 ) ) ;
#26 = EDGE_CURVE ( 'NONE', #119, #119, #215, .T. ) ;
#27 = EDGE_LOOP ( 'NONE', ( #173 ) ) ;
#28 = AXIS2_PLACEMENT_3D ( 'NONE', #266, #149, #10 ) ;
#29 = CARTESIAN_POINT ( 'NONE',  ( 1.745740669421566993E-14, -6.123233995736767268E-16, 5.000000000000000888 ) ) ;
#30 =( NAMED_UNIT ( * ) SI_UNIT ( $, .STERADIAN. ) SOLID_ANGLE_UNIT ( ) );
#31 = CIRCLE ( 'NONE', #283, 0.1949999999999997569 ) ;
#32 = PERSON_AND_ORGANIZATION ( #86, #129 ) ;
#33 = PERSON_AND_ORGANIZATION ( #86, #129 ) ;
#34 = DIRECTION ( 'NONE',  ( -3.491481338843133355E-15, 1.224646799147353207E-16, -1.000000000000000000 ) ) ;
#35 = AXIS2_PLACEMENT_3D ( 'NONE', #37, #34, #255 ) ;
#36 = DIRECTION ( 'NONE',  ( 4.275831445896958607E-31, 1.000000000000000000, 1.224646799147353207E-16 ) ) ;
#37 = CARTESIAN_POINT ( 'NONE',  ( 1.316288464743861212E-13, -4.616918432785521081E-15, 37.69999999999999574 ) ) ;
#38 = DIRECTION ( 'NONE',  ( -4.275831445896958607E-31, -1.000000000000000000, -1.224646799147353207E-16 ) ) ;
#39 = CC_DESIGN_PERSON_AND_ORGANIZATION_ASSIGNMENT ( #184, #87, ( #53 ) ) ;
#40 = MECHANICAL_CONTEXT ( 'NONE', #158, 'mechanical' ) ;
#41 = EDGE_LOOP ( 'NONE', ( #124 ) ) ;
#42 = AXIS2_PLACEMENT_3D ( 'NONE', #90, #250, #51 ) ;
#43 = DIRECTION ( 'NONE',  ( 0.0000000000000000000, 0.0000000000000000000, 1.000000000000000000 ) ) ;
#44 = EDGE_LOOP ( 'NONE', ( #240 ) ) ;
#45 = APPROVAL_PERSON_ORGANIZATION ( #9, #83, #245 ) ;
#46 = AXIS2_PLACEMENT_3D ( 'NONE', #115, #229, #36 ) ;
#47 = CC_DESIGN_PERSON_AND_ORGANIZATION_ASSIGNMENT ( #33, #274, ( #53 ) ) ;
#48 = ADVANCED_FACE ( 'NONE', ( #175, #64 ), #104, .T. ) ;
#49 = DATE_TIME_ROLE ( 'classification_date' ) ;
#50 = DIRECTION ( 'NONE',  ( -3.491481338843133355E-15, 1.224646799147353207E-16, -1.000000000000000000 ) ) ;
#51 = DIRECTION ( 'NONE',  ( -4.938281908685239157E-31, -1.000000000000000000, -1.390002785237831551E-16 ) ) ;
#52 = AXIS2_PLACEMENT_3D ( 'NONE', #65, #236, #120 ) ;
#53 = PRODUCT_DEFINITION_FORMATION_WITH_SPECIFIED_SOURCE ( 'ANY', '', #84, .NOT_KNOWN. ) ;
#54 = FACE_BOUND ( 'NONE', #25, .T. ) ;
#55 = EDGE_LOOP ( 'NONE', ( #145 ) ) ;
#56 = DIRECTION ( 'NONE',  ( -3.491481338843133355E-15, 1.224646799147353207E-16, -1.000000000000000000 ) ) ;
#57 = DIRECTION ( 'NONE',  ( 0.0000000000000000000, 1.000000000000000000, 0.0000000000000000000 ) ) ;
#58 = CC_DESIGN_PERSON_AND_ORGANIZATION_ASSIGNMENT ( #96, #174, ( #101 ) ) ;
#59 = CARTESIAN_POINT ( 'NONE',  ( 1.047444401652940007E-14, 0.1949999999999993683, 3.000000000000000000 ) ) ;
#60 = DIRECTION ( 'NONE',  ( -4.275831445896958607E-31, -1.000000000000000000, -1.224646799147353207E-16 ) ) ;
#61 = MANIFOLD_SOLID_BREP ( 'Corps-Déplacer/Copier1[1]', #226 ) ;
#62 = CARTESIAN_POINT ( 'NONE',  ( 0.0000000000000000000, 0.0000000000000000000, 0.0000000000000000000 ) ) ;
#63 = COORDINATED_UNIVERSAL_TIME_OFFSET ( 1, 0, .AHEAD. ) ;
#64 = FACE_OUTER_BOUND ( 'NONE', #76, .T. ) ;
#65 = CARTESIAN_POINT ( 'NONE',  ( 1.047444401652940007E-14, -3.673940397442059868E-16, 3.000000000000000000 ) ) ;
#66 = DATE_TIME_ROLE ( 'creation_date' ) ;
#67 = CONICAL_SURFACE ( 'NONE', #42, 0.1949999999999992573, 0.5235987755982925984 ) ;
#68 = CARTESIAN_POINT ( 'NONE',  ( 1.047444401652940007E-14, 1.462265788095303710E-33, 3.000000000000000000 ) ) ;
#69 = APPROVAL_STATUS ( 'not_yet_approved' ) ;
#70 = DIRECTION ( 'NONE',  ( 0.0000000000000000000, 1.000000000000000000, 0.0000000000000000000 ) ) ;
#71 = FACE_OUTER_BOUND ( 'NONE', #118, .T. ) ;
#72 = PLANE ( 'NONE',  #201 ) ;
#73 = CARTESIAN_POINT ( 'NONE',  ( 1.745740669421566678E-14, -4.336808689942017736E-16, 5.000000000000000000 ) ) ;
#74 = DIRECTION ( 'NONE',  ( 0.0000000000000000000, -1.000000000000000000, 0.0000000000000000000 ) ) ;
#75 = CARTESIAN_POINT ( 'NONE',  ( 4.390886967221161490E-14, 1.499999999999995559, 12.57600010165323390 ) ) ;
#76 = EDGE_LOOP ( 'NONE', ( #95 ) ) ;
#77 = CONICAL_SURFACE ( 'NONE', #264, 1.499999999999996891, 0.1745329251994261199 ) ;
#78 = DIRECTION ( 'NONE',  ( -3.491481338843133355E-15, 1.224646799147353207E-16, -1.000000000000000000 ) ) ;
#79 = VERTEX_POINT ( 'NONE', #198 ) ;
#80 = DIRECTION ( 'NONE',  ( 0.0000000000000000000, 1.000000000000000000, 0.0000000000000000000 ) ) ;
#81 = ORIENTED_EDGE ( 'NONE', *, *, #159, .F. ) ;
#82 = DATE_AND_TIME ( #269, #150 ) ;
#83 = APPROVAL ( #1, 'UNSPECIFIED' ) ;
#84 = PRODUCT ( '969543', '969543', '', ( #40 ) ) ;
#85 = VERTEX_POINT ( 'NONE', #117 ) ;
#86 = PERSON ( 'UNSPECIFIED', 'UNSPECIFIED', 'UNSPECIFIED', ('UNSPECIFIED'), ('UNSPECIFIED'), ('UNSPECIFIED') ) ;
#87 = PERSON_AND_ORGANIZATION_ROLE ( 'creator' ) ;
#88 = CALENDAR_DATE ( 2021, 1, 12 ) ;
#89 = DIRECTION ( 'NONE',  ( -3.491481338843133355E-15, 1.224646799147353207E-16, -1.000000000000000000 ) ) ;
#90 = CARTESIAN_POINT ( 'NONE',  ( 3.491481338843132862E-16, -1.224646799147352961E-17, 0.09999999999999997780 ) ) ;
#91 = CYLINDRICAL_SURFACE ( 'NONE', #176, 0.1949999999999999234 ) ;
#92 = DIRECTION ( 'NONE',  ( -3.491481338843133355E-15, 1.224646799147353207E-16, -1.000000000000000000 ) ) ;
#93 = CC_DESIGN_PERSON_AND_ORGANIZATION_ASSIGNMENT ( #102, #8, ( #84 ) ) ;
#94 = DIRECTION ( 'NONE',  ( 1.000000000000000000, 0.0000000000000000000, 0.0000000000000000000 ) ) ;
#95 = ORIENTED_EDGE ( 'NONE', *, *, #7, .T. ) ;
#96 = PERSON_AND_ORGANIZATION ( #86, #129 ) ;
#97 = EDGE_LOOP ( 'NONE', ( #166 ) ) ;
#98 = ORIENTED_EDGE ( 'NONE', *, *, #265, .T. ) ;
#99 = LOCAL_TIME ( 8, 27, 30.00000000000000000, #3 ) ;
#100 = ORIENTED_EDGE ( 'NONE', *, *, #196, .T. ) ;
#101 = PRODUCT_DEFINITION ( 'UNKNOWN', '', #53, #152 ) ;
#102 = PERSON_AND_ORGANIZATION ( #86, #129 ) ;
#103 = VERTEX_POINT ( 'NONE', #258 ) ;
#104 = CYLINDRICAL_SURFACE ( 'NONE', #28, 0.1949999999999995071 ) ;
#105 = APPROVAL_DATE_TIME ( #247, #181 ) ;
#106 = CC_DESIGN_SECURITY_CLASSIFICATION ( #187, ( #53 ) ) ;
#107 = ADVANCED_FACE ( 'NONE', ( #220 ), #199, .F. ) ;
#108 = APPROVAL_ROLE ( '' ) ;
#109 = CALENDAR_DATE ( 2021, 1, 12 ) ;
#110 = AXIS2_PLACEMENT_3D ( 'NONE', #19, #189, #281 ) ;
#111 = DIRECTION ( 'NONE',  ( 4.402435948415478742E-31, 1.000000000000000000, 1.224646799147353207E-16 ) ) ;
#112 = PRODUCT_RELATED_PRODUCT_CATEGORY ( 'detail', '', ( #84 ) ) ;
#113 = FACE_BOUND ( 'NONE', #20, .T. ) ;
#114 = CARTESIAN_POINT ( 'NONE',  ( 1.326762908760390423E-13, -4.653657836759941941E-15, 38.00000000000000000 ) ) ;
#115 = CARTESIAN_POINT ( 'NONE',  ( 1.326762908760390423E-13, 8.998558695971103225E-33, 38.00000000000000000 ) ) ;
#116 = AXIS2_PLACEMENT_3D ( 'NONE', #167, #92, #70 ) ;
#117 = CARTESIAN_POINT ( 'NONE',  ( -4.731839565957904486E-32, 0.1372649730810375224, -1.355252715606880543E-17 ) ) ;
#118 = EDGE_LOOP ( 'NONE', ( #193 ) ) ;
#119 = VERTEX_POINT ( 'NONE', #75 ) ;
#120 = DIRECTION ( 'NONE',  ( 0.0000000000000000000, 1.000000000000000000, 0.0000000000000000000 ) ) ;
#121 = AXIS2_PLACEMENT_3D ( 'NONE', #140, #78, #80 ) ;
#122 = CC_DESIGN_APPROVAL ( #181, ( #187 ) ) ;
#123 = VERTEX_POINT ( 'NONE', #282 ) ;
#124 = ORIENTED_EDGE ( 'NONE', *, *, #26, .T. ) ;
#125 = UNCERTAINTY_MEASURE_WITH_UNIT (LENGTH_MEASURE( 1.000000000000000082E-05 ), #144, 'distance_accuracy_value', 'NONE');
#126 = EDGE_LOOP ( 'NONE', ( #214 ) ) ;
#127 = APPROVAL_STATUS ( 'not_yet_approved' ) ;
#128 = DIRECTION ( 'NONE',  ( 3.491481338843133355E-15, -1.224646799147353207E-16, 1.000000000000000000 ) ) ;
#129 = ORGANIZATION ( 'UNSPECIFIED', 'UNSPECIFIED', '' ) ;
#130 = DIRECTION ( 'NONE',  ( 4.938281908685239157E-31, 1.000000000000000000, 1.390002785237831551E-16 ) ) ;
#131 = AXIS2_PLACEMENT_3D ( 'NONE', #203, #89, #273 ) ;
#132 = PLANE ( 'NONE',  #46 ) ;
#133 = DIRECTION ( 'NONE',  ( -3.491481338843133355E-15, 1.224646799147353207E-16, -1.000000000000000000 ) ) ;
#134 = ADVANCED_FACE ( 'NONE', ( #248, #225 ), #233, .T. ) ;
#135 = DIRECTION ( 'NONE',  ( 0.0000000000000000000, 1.000000000000000000, 0.0000000000000000000 ) ) ;
#136 = CARTESIAN_POINT ( 'NONE',  ( 3.491481338843132862E-16, -1.224646799147352961E-17, 0.09999999999999997780 ) ) ;
#137 = AXIS2_PLACEMENT_3D ( 'NONE', #68, #128, #156 ) ;
#138 = CC_DESIGN_APPROVAL ( #83, ( #101 ) ) ;
#139 = VERTEX_POINT ( 'NONE', #237 ) ;
#140 = CARTESIAN_POINT ( 'NONE',  ( 4.390886967221161490E-14, -1.540115827056642056E-15, 12.57600010165323390 ) ) ;
#141 = DIRECTION ( 'NONE',  ( 0.0000000000000000000, 1.000000000000000000, 0.0000000000000000000 ) ) ;
#142 = ORIENTED_EDGE ( 'NONE', *, *, #196, .F. ) ;
#143 = CC_DESIGN_DATE_AND_TIME_ASSIGNMENT ( #82, #66, ( #101 ) ) ;
#144 =( LENGTH_UNIT ( ) NAMED_UNIT ( * ) SI_UNIT ( .MILLI., .METRE. ) );
#145 = ORIENTED_EDGE ( 'NONE', *, *, #279, .T. ) ;
#146 =( GEOMETRIC_REPRESENTATION_CONTEXT ( 3 ) GLOBAL_UNCERTAINTY_ASSIGNED_CONTEXT ( ( #125 ) ) GLOBAL_UNIT_ASSIGNED_CONTEXT ( ( #144, #211, #30 ) ) REPRESENTATION_CONTEXT ( 'NONE', 'WORKASPACE' ) );
#147 = EDGE_CURVE ( 'NONE', #213, #213, #209, .T. ) ;
#148 = FACE_OUTER_BOUND ( 'NONE', #126, .T. ) ;
#149 = DIRECTION ( 'NONE',  ( -3.491481338843133355E-15, 1.224646799147353207E-16, -1.000000000000000000 ) ) ;
#150 = LOCAL_TIME ( 8, 27, 30.00000000000000000, #63 ) ;
#151 = PERSON_AND_ORGANIZATION ( #86, #129 ) ;
#152 = DESIGN_CONTEXT ( 'detailed design', #204, 'design' ) ;
#153 = EDGE_CURVE ( 'NONE', #103, #103, #157, .T. ) ;
#154 = APPLICATION_PROTOCOL_DEFINITION ( 'international standard', 'config_control_design', 1994, #158 ) ;
#155 = DATE_AND_TIME ( #88, #243 ) ;
#156 = DIRECTION ( 'NONE',  ( -4.275831445896958607E-31, -1.000000000000000000, -1.224646799147353207E-16 ) ) ;
#157 = CIRCLE ( 'NONE', #12, 0.1949999999999992573 ) ;
#158 = APPLICATION_CONTEXT ( 'configuration controlled 3d designs of mechanical parts and assemblies' ) ;
#159 = EDGE_CURVE ( 'NONE', #267, #267, #180, .T. ) ;
#160 = CARTESIAN_POINT ( 'NONE',  ( -5.300529224579450411E-32, 1.859175381077375037E-33, -1.518131907397141258E-17 ) ) ;
#161 = PERSON_AND_ORGANIZATION ( #86, #129 ) ;
#162 = FACE_OUTER_BOUND ( 'NONE', #6, .T. ) ;
#163 = COORDINATED_UNIVERSAL_TIME_OFFSET ( 1, 0, .AHEAD. ) ;
#164 = TOROIDAL_SURFACE ( 'NONE', #272, 2.194999999999999840, 2.000000000000000000 ) ;
#165 = CARTESIAN_POINT ( 'NONE',  ( 4.390886967221161490E-14, -1.540115827056642056E-15, 12.57600010165323390 ) ) ;
#166 = ORIENTED_EDGE ( 'NONE', *, *, #212, .F. ) ;
#167 = CARTESIAN_POINT ( 'NONE',  ( 1.866998543791203065E-14, -6.548549365651905381E-16, 5.347296355333847728 ) ) ;
#168 = FACE_OUTER_BOUND ( 'NONE', #217, .T. ) ;
#169 = CARTESIAN_POINT ( 'NONE',  ( 1.316288464743861212E-13, 1.499999999999998668, 37.69999999999999574 ) ) ;
#170 = AXIS2_PLACEMENT_3D ( 'NONE', #15, #50, #57 ) ;
#171 = PLANE ( 'NONE',  #271 ) ;
#172 = CC_DESIGN_DATE_AND_TIME_ASSIGNMENT ( #227, #49, ( #187 ) ) ;
#173 = ORIENTED_EDGE ( 'NONE', *, *, #26, .F. ) ;
#174 = PERSON_AND_ORGANIZATION_ROLE ( 'creator' ) ;
#175 = FACE_OUTER_BOUND ( 'NONE', #262, .T. ) ;
#176 = AXIS2_PLACEMENT_3D ( 'NONE', #188, #278, #210 ) ;
#177 = ADVANCED_FACE ( 'NONE', ( #253, #168 ), #185, .T. ) ;
#178 = EDGE_LOOP ( 'NONE', ( #142 ) ) ;
#179 = CIRCLE ( 'NONE', #52, 0.1949999999999997569 ) ;
#180 = CIRCLE ( 'NONE', #35, 1.500000000000003331 ) ;
#181 = APPROVAL ( #69, 'UNSPECIFIED' ) ;
#182 = COORDINATED_UNIVERSAL_TIME_OFFSET ( 1, 0, .AHEAD. ) ;
#183 = APPROVAL_PERSON_ORGANIZATION ( #151, #13, #190 ) ;
#184 = PERSON_AND_ORGANIZATION ( #86, #129 ) ;
#185 = CYLINDRICAL_SURFACE ( 'NONE', #131, 1.500000000000000000 ) ;
#186 = FACE_OUTER_BOUND ( 'NONE', #44, .T. ) ;
#187 = SECURITY_CLASSIFICATION ( '', '', #249 ) ;
#188 = CARTESIAN_POINT ( 'NONE',  ( 0.0000000000000000000, 0.0000000000000000000, 0.0000000000000000000 ) ) ;
#189 = DIRECTION ( 'NONE',  ( -3.491481338843133355E-15, 1.224646799147353207E-16, -1.000000000000000000 ) ) ;
#190 = APPROVAL_ROLE ( '' ) ;
#191 = APPLICATION_PROTOCOL_DEFINITION ( 'international standard', 'config_control_design', 1994, #204 ) ;
#192 = AXIS2_PLACEMENT_3D ( 'NONE', #114, #133, #135 ) ;
#193 = ORIENTED_EDGE ( 'NONE', *, *, #153, .T. ) ;
#194 = CARTESIAN_POINT ( 'NONE',  ( 1.866998543791203065E-14, 0.2253844939755806354, 5.347296355333847728 ) ) ;
#195 = DIRECTION ( 'NONE',  ( 3.491481338843133355E-15, -1.224646799147353207E-16, 1.000000000000000000 ) ) ;
#196 = EDGE_CURVE ( 'NONE', #139, #139, #31, .T. ) ;
#197 = ORIENTED_EDGE ( 'NONE', *, *, #153, .F. ) ;
#198 = CARTESIAN_POINT ( 'NONE',  ( 1.745740669421566993E-14, 0.1949999999999994238, 5.000000000000000888 ) ) ;
#199 = PLANE ( 'NONE',  #137 ) ;
#200 = ADVANCED_FACE ( 'NONE', ( #162, #186 ), #164, .F. ) ;
#201 = AXIS2_PLACEMENT_3D ( 'NONE', #160, #207, #38 ) ;
#202 = SHAPE_DEFINITION_REPRESENTATION ( #280, #263 ) ;
#203 = CARTESIAN_POINT ( 'NONE',  ( 0.0000000000000000000, 0.0000000000000000000, 0.0000000000000000000 ) ) ;
#204 = APPLICATION_CONTEXT ( 'configuration controlled 3d designs of mechanical parts and assemblies' ) ;
#205 = COORDINATED_UNIVERSAL_TIME_OFFSET ( 1, 0, .AHEAD. ) ;
#206 = CC_DESIGN_APPROVAL ( #13, ( #53 ) ) ;
#207 = DIRECTION ( 'NONE',  ( 3.491481338843133355E-15, -1.224646799147353207E-16, 1.000000000000000000 ) ) ;
#208 = FACE_OUTER_BOUND ( 'NONE', #97, .T. ) ;
#209 = CIRCLE ( 'NONE', #116, 0.2253844939755812737 ) ;
#210 = DIRECTION ( 'NONE',  ( 4.275831445896958607E-31, 1.000000000000000000, 1.224646799147353207E-16 ) ) ;
#211 =( NAMED_UNIT ( * ) PLANE_ANGLE_UNIT ( ) SI_UNIT ( $, .RADIAN. ) );
#212 = EDGE_CURVE ( 'NONE', #123, #123, #257, .T. ) ;
#213 = VERTEX_POINT ( 'NONE', #194 ) ;
#214 = ORIENTED_EDGE ( 'NONE', *, *, #7, .F. ) ;
#215 = CIRCLE ( 'NONE', #121, 1.499999999999996891 ) ;
#216 = CALENDAR_DATE ( 2021, 1, 12 ) ;
#217 = EDGE_LOOP ( 'NONE', ( #218 ) ) ;
#218 = ORIENTED_EDGE ( 'NONE', *, *, #159, .T. ) ;
#219 = EDGE_LOOP ( 'NONE', ( #81 ) ) ;
#220 = FACE_OUTER_BOUND ( 'NONE', #4, .T. ) ;
#221 = CC_DESIGN_PERSON_AND_ORGANIZATION_ASSIGNMENT ( #32, #270, ( #187 ) ) ;
#222 = CIRCLE ( 'NONE', #18, 0.1950000000000000622 ) ;
#223 = CALENDAR_DATE ( 2021, 1, 12 ) ;
#224 = ADVANCED_FACE ( 'NONE', ( #234 ), #72, .F. ) ;
#225 = FACE_BOUND ( 'NONE', #259, .T. ) ;
#226 = CLOSED_SHELL ( 'NONE', ( #107, #252, #200, #246, #177, #134, #242 ) ) ;
#227 = DATE_AND_TIME ( #109, #268 ) ;
#228 = CIRCLE ( 'NONE', #110, 0.1372649730810375224 ) ;
#229 = DIRECTION ( 'NONE',  ( -3.491481338843133355E-15, 1.224646799147353207E-16, -1.000000000000000000 ) ) ;
#230 = ADVANCED_FACE ( 'NONE', ( #54, #71 ), #67, .T. ) ;
#231 = FACE_OUTER_BOUND ( 'NONE', #178, .T. ) ;
#232 = DIRECTION ( 'NONE',  ( -3.491481338843133355E-15, 1.224646799147353207E-16, -1.000000000000000000 ) ) ;
#233 = CONICAL_SURFACE ( 'NONE', #170, 1.200000000000003286, 0.7853981633974453924 ) ;
#234 = FACE_OUTER_BOUND ( 'NONE', #277, .T. ) ;
#235 = VERTEX_POINT ( 'NONE', #59 ) ;
#236 = DIRECTION ( 'NONE',  ( -3.491481338843133355E-15, 1.224646799147353207E-16, -1.000000000000000000 ) ) ;
#237 = CARTESIAN_POINT ( 'NONE',  ( 1.047444401652940007E-14, 0.1949999999999993683, 3.000000000000000000 ) ) ;
#238 = AXIS2_PLACEMENT_3D ( 'NONE', #62, #43, #94 ) ;
#239 = ORIENTED_EDGE ( 'NONE', *, *, #212, .T. ) ;
#240 = ORIENTED_EDGE ( 'NONE', *, *, #147, .T. ) ;
#241 = ORIENTED_EDGE ( 'NONE', *, *, #265, .F. ) ;
#242 = ADVANCED_FACE ( 'NONE', ( #208 ), #132, .F. ) ;
#243 = LOCAL_TIME ( 8, 27, 30.00000000000000000, #182 ) ;
#244 = MANIFOLD_SOLID_BREP ( 'Corps-Déplacer/Copier1[2]', #21 ) ;
#245 = APPROVAL_ROLE ( '' ) ;
#246 = ADVANCED_FACE ( 'NONE', ( #113, #276 ), #77, .T. ) ;
#247 = DATE_AND_TIME ( #223, #5 ) ;
#248 = FACE_OUTER_BOUND ( 'NONE', #219, .T. ) ;
#249 = SECURITY_CLASSIFICATION_LEVEL ( 'unclassified' ) ;
#250 = DIRECTION ( 'NONE',  ( 3.491481338843133355E-15, -1.224646799147353207E-16, 1.000000000000000000 ) ) ;
#251 = CARTESIAN_POINT ( 'NONE',  ( 1.047444401652940007E-14, -3.673940397442059868E-16, 3.000000000000000000 ) ) ;
#252 = ADVANCED_FACE ( 'NONE', ( #231, #17 ), #91, .T. ) ;
#253 = FACE_OUTER_BOUND ( 'NONE', #27, .T. ) ;
#254 = ORIENTED_EDGE ( 'NONE', *, *, #147, .F. ) ;
#255 = DIRECTION ( 'NONE',  ( 0.0000000000000000000, 1.000000000000000000, 0.0000000000000000000 ) ) ;
#256 = DIRECTION ( 'NONE',  ( 3.491481338843133355E-15, -1.224646799147353207E-16, 1.000000000000000000 ) ) ;
#257 = CIRCLE ( 'NONE', #192, 1.200000000000003286 ) ;
#258 = CARTESIAN_POINT ( 'NONE',  ( 3.491481338843133848E-16, 0.1949999999999992573, 0.1000000000000000056 ) ) ;
#259 = EDGE_LOOP ( 'NONE', ( #239 ) ) ;
#260 = DATE_AND_TIME ( #216, #99 ) ;
#261 = DIRECTION ( 'NONE',  ( -3.491481338843133355E-15, 1.224646799147353207E-16, -1.000000000000000000 ) ) ;
#262 = EDGE_LOOP ( 'NONE', ( #197 ) ) ;
#263 = ADVANCED_BREP_SHAPE_REPRESENTATION ( '969543', ( #61, #244, #238 ), #146 ) ;
#264 = AXIS2_PLACEMENT_3D ( 'NONE', #165, #256, #74 ) ;
#265 = EDGE_CURVE ( 'NONE', #85, #85, #228, .T. ) ;
#266 = CARTESIAN_POINT ( 'NONE',  ( 0.0000000000000000000, 0.0000000000000000000, 0.0000000000000000000 ) ) ;
#267 = VERTEX_POINT ( 'NONE', #169 ) ;
#268 = LOCAL_TIME ( 8, 27, 30.00000000000000000, #205 ) ;
#269 = CALENDAR_DATE ( 2021, 1, 12 ) ;
#270 = PERSON_AND_ORGANIZATION_ROLE ( 'classification_officer' ) ;
#271 = AXIS2_PLACEMENT_3D ( 'NONE', #2, #195, #60 ) ;
#272 = AXIS2_PLACEMENT_3D ( 'NONE', #73, #56, #111 ) ;
#273 = DIRECTION ( 'NONE',  ( 4.275831445896959482E-31, 1.000000000000000000, 1.224646799147353207E-16 ) ) ;
#274 = PERSON_AND_ORGANIZATION_ROLE ( 'design_supplier' ) ;
#275 = DIRECTION ( 'NONE',  ( 0.0000000000000000000, 1.000000000000000000, 0.0000000000000000000 ) ) ;
#276 = FACE_OUTER_BOUND ( 'NONE', #41, .T. ) ;
#277 = EDGE_LOOP ( 'NONE', ( #98 ) ) ;
#278 = DIRECTION ( 'NONE',  ( -3.491481338843133355E-15, 1.224646799147353207E-16, -1.000000000000000000 ) ) ;
#279 = EDGE_CURVE ( 'NONE', #79, #79, #222, .T. ) ;
#280 = PRODUCT_DEFINITION_SHAPE ( 'NONE', 'NONE',  #101 ) ;
#281 = DIRECTION ( 'NONE',  ( 4.275831445896957731E-31, 1.000000000000000000, 1.224646799147353207E-16 ) ) ;
#282 = CARTESIAN_POINT ( 'NONE',  ( 1.326762908760390423E-13, 1.199999999999998845, 38.00000000000000000 ) ) ;
#283 = AXIS2_PLACEMENT_3D ( 'NONE', #251, #11, #275 ) ;
ENDSEC;
END-ISO-10303-21;
