ISO-10303-21;
HEADER;
FILE_DESCRIPTION (( 'STEP AP203' ),
    '1' );
FILE_NAME ('969503.step',
    '2021-12-16T13:16:23',
    ( '' ),
    ( '' ),
    'SwSTEP 2.0',
    'SolidWorks 2019',
    '' );
FILE_SCHEMA (( 'CONFIG_CONTROL_DESIGN' ));
ENDSEC;

DATA;
#1 = CYLINDRICAL_SURFACE ( 'NONE', #197, 0.9999999999999986677 ) ;
#2 = CIRCLE ( 'NONE', #61, 0.8000000000000002665 ) ;
#3 = ORIENTED_EDGE ( 'NONE', *, *, #84, .F. ) ;
#4 = EDGE_LOOP ( 'NONE', ( #89 ) ) ;
#5 = EDGE_LOOP ( 'NONE', ( #83 ) ) ;
#6 = CARTESIAN_POINT ( 'NONE',  ( 3.140322965808199412E-15, -1.101477022254455602E-16, 0.8994242446241207389 ) ) ;
#7 = CARTESIAN_POINT ( 'NONE',  ( 1.110291065752116407E-13, -3.894376821288583549E-15, 31.80000000000000071 ) ) ;
#8 = DIRECTION ( 'NONE',  ( 0.0000000000000000000, 1.000000000000000000, 0.0000000000000000000 ) ) ;
#9 = LOCAL_TIME ( 14, 16, 23.00000000000000000, #154 ) ;
#10 = CIRCLE ( 'NONE', #80, 0.9999999999999970024 ) ;
#11 = CARTESIAN_POINT ( 'NONE',  ( 1.745740669421566678E-14, -6.123233995736766282E-16, 5.000000000000000000 ) ) ;
#12 = DIRECTION ( 'NONE',  ( 3.491481338843133355E-15, -1.224646799147353207E-16, 1.000000000000000000 ) ) ;
#13 = PERSON_AND_ORGANIZATION ( #90, #188 ) ;
#14 = APPLICATION_CONTEXT ( 'configuration controlled 3d designs of mechanical parts and assemblies' ) ;
#15 = EDGE_CURVE ( 'NONE', #26, #26, #140, .T. ) ;
#16 = CARTESIAN_POINT ( 'NONE',  ( 2.586164117829832693E-14, 0.9999999999999961142, 7.407068424105430537 ) ) ;
#17 = PRODUCT_DEFINITION ( 'UNKNOWN', '', #156, #192 ) ;
#18 = CC_DESIGN_APPROVAL ( #205, ( #17 ) ) ;
#19 = EDGE_LOOP ( 'NONE', ( #221 ) ) ;
#20 = ORIENTED_EDGE ( 'NONE', *, *, #107, .T. ) ;
#21 = ORIENTED_EDGE ( 'NONE', *, *, #225, .T. ) ;
#22 = ADVANCED_FACE ( 'NONE', ( #230, #42 ), #202, .T. ) ;
#23 = ORIENTED_EDGE ( 'NONE', *, *, #84, .T. ) ;
#24 = ADVANCED_FACE ( 'NONE', ( #251, #160 ), #1, .T. ) ;
#25 = DIRECTION ( 'NONE',  ( -3.491481338843133355E-15, 1.224646799147353207E-16, -1.000000000000000000 ) ) ;
#26 = VERTEX_POINT ( 'NONE', #94 ) ;
#27 = CARTESIAN_POINT ( 'NONE',  ( -1.579215137434749286E-31, 5.539141056573190865E-33, -4.523051920300413545E-17 ) ) ;
#28 = FACE_OUTER_BOUND ( 'NONE', #114, .T. ) ;
#29 = DIRECTION ( 'NONE',  ( 4.275831445896958607E-31, 1.000000000000000000, 1.224646799147353207E-16 ) ) ;
#30 = APPROVAL_PERSON_ORGANIZATION ( #126, #205, #149 ) ;
#31 = CLOSED_SHELL ( 'NONE', ( #212, #148, #22, #244 ) ) ;
#32 = DIRECTION ( 'NONE',  ( 0.0000000000000000000, -1.000000000000000000, 0.0000000000000000000 ) ) ;
#33 = PERSON_AND_ORGANIZATION_ROLE ( 'design_owner' ) ;
#34 = VERTEX_POINT ( 'NONE', #242 ) ;
#35 =( LENGTH_UNIT ( ) NAMED_UNIT ( * ) SI_UNIT ( .MILLI., .METRE. ) );
#36 = APPROVAL ( #158, 'UNSPECIFIED' ) ;
#37 = VERTEX_POINT ( 'NONE', #195 ) ;
#38 = DATE_TIME_ROLE ( 'creation_date' ) ;
#39 = ADVANCED_BREP_SHAPE_REPRESENTATION ( '969503', ( #152, #147, #138 ), #40 ) ;
#40 =( GEOMETRIC_REPRESENTATION_CONTEXT ( 3 ) GLOBAL_UNCERTAINTY_ASSIGNED_CONTEXT ( ( #173 ) ) GLOBAL_UNIT_ASSIGNED_CONTEXT ( ( #35, #103, #81 ) ) REPRESENTATION_CONTEXT ( 'NONE', 'WORKASPACE' ) );
#41 = EDGE_LOOP ( 'NONE', ( #3 ) ) ;
#42 = FACE_OUTER_BOUND ( 'NONE', #132, .T. ) ;
#43 = PERSON_AND_ORGANIZATION_ROLE ( 'design_supplier' ) ;
#44 = EDGE_LOOP ( 'NONE', ( #85 ) ) ;
#45 = EDGE_CURVE ( 'NONE', #232, #232, #50, .T. ) ;
#46 = CALENDAR_DATE ( 2021, 16, 12 ) ;
#47 = CARTESIAN_POINT ( 'NONE',  ( 3.140322965808199412E-15, -1.101477022254455602E-16, 0.8994242446241207389 ) ) ;
#48 = DIRECTION ( 'NONE',  ( 0.0000000000000000000, 1.000000000000000000, 0.0000000000000000000 ) ) ;
#49 = CARTESIAN_POINT ( 'NONE',  ( 1.745740669421566678E-14, 0.7209999999999991971, 5.000000000000000000 ) ) ;
#50 = CIRCLE ( 'NONE', #262, 0.7209999999999998632 ) ;
#51 = CARTESIAN_POINT ( 'NONE',  ( 2.199633243471174014E-14, -8.673617379884035472E-16, 6.299999999999999822 ) ) ;
#52 = CC_DESIGN_PERSON_AND_ORGANIZATION_ASSIGNMENT ( #283, #264, ( #63 ) ) ;
#53 = DIRECTION ( 'NONE',  ( 3.491481338843133355E-15, -1.224646799147353207E-16, 1.000000000000000000 ) ) ;
#54 = DIRECTION ( 'NONE',  ( -5.342385421323821257E-31, -1.000000000000000000, -1.503747812046470730E-16 ) ) ;
#55 = CIRCLE ( 'NONE', #219, 0.7209999999999993081 ) ;
#56 = VERTEX_POINT ( 'NONE', #196 ) ;
#57 = APPROVAL_STATUS ( 'not_yet_approved' ) ;
#58 = CC_DESIGN_DATE_AND_TIME_ASSIGNMENT ( #175, #38, ( #17 ) ) ;
#59 = APPROVAL_PERSON_ORGANIZATION ( #60, #99, #243 ) ;
#60 = PERSON_AND_ORGANIZATION ( #90, #188 ) ;
#61 = AXIS2_PLACEMENT_3D ( 'NONE', #117, #273, #122 ) ;
#62 = COORDINATED_UNIVERSAL_TIME_OFFSET ( 1, 0, .AHEAD. ) ;
#63 = SECURITY_CLASSIFICATION ( '', '', #86 ) ;
#64 = ADVANCED_FACE ( 'NONE', ( #271 ), #164, .F. ) ;
#65 = EDGE_LOOP ( 'NONE', ( #23 ) ) ;
#66 = EDGE_LOOP ( 'NONE', ( #21 ) ) ;
#67 = AXIS2_PLACEMENT_3D ( 'NONE', #11, #119, #100 ) ;
#68 = EDGE_LOOP ( 'NONE', ( #282 ) ) ;
#69 = DIRECTION ( 'NONE',  ( 5.342385421323821257E-31, 1.000000000000000000, 1.503747812046470730E-16 ) ) ;
#70 = FACE_BOUND ( 'NONE', #65, .T. ) ;
#71 = DIRECTION ( 'NONE',  ( 4.275831445896957731E-31, 1.000000000000000000, 1.224646799147353207E-16 ) ) ;
#72 = CONICAL_SURFACE ( 'NONE', #270, 0.8000000000000002665, 0.7853981633974518317 ) ;
#73 = DIRECTION ( 'NONE',  ( -4.275831445896958607E-31, -1.000000000000000000, -1.224646799147353207E-16 ) ) ;
#74 = EDGE_CURVE ( 'NONE', #174, #174, #55, .T. ) ;
#75 = DIRECTION ( 'NONE',  ( -3.491481338843133355E-15, 1.224646799147353207E-16, -1.000000000000000000 ) ) ;
#76 = DIRECTION ( 'NONE',  ( -3.491481338843133355E-15, 1.224646799147353207E-16, -1.000000000000000000 ) ) ;
#77 = DATE_AND_TIME ( #79, #9 ) ;
#78 = EDGE_CURVE ( 'NONE', #56, #56, #125, .T. ) ;
#79 = CALENDAR_DATE ( 2021, 16, 12 ) ;
#80 = AXIS2_PLACEMENT_3D ( 'NONE', #272, #254, #8 ) ;
#81 =( NAMED_UNIT ( * ) SI_UNIT ( $, .STERADIAN. ) SOLID_ANGLE_UNIT ( ) );
#82 = CC_DESIGN_PERSON_AND_ORGANIZATION_ASSIGNMENT ( #13, #239, ( #156 ) ) ;
#83 = ORIENTED_EDGE ( 'NONE', *, *, #74, .T. ) ;
#84 = EDGE_CURVE ( 'NONE', #127, #127, #2, .T. ) ;
#85 = ORIENTED_EDGE ( 'NONE', *, *, #225, .F. ) ;
#86 = SECURITY_CLASSIFICATION_LEVEL ( 'unclassified' ) ;
#87 = CC_DESIGN_DATE_AND_TIME_ASSIGNMENT ( #161, #229, ( #63 ) ) ;
#88 = DIRECTION ( 'NONE',  ( 4.275831445896958607E-31, 1.000000000000000000, 1.224646799147353207E-16 ) ) ;
#89 = ORIENTED_EDGE ( 'NONE', *, *, #78, .F. ) ;
#90 = PERSON ( 'UNSPECIFIED', 'UNSPECIFIED', 'UNSPECIFIED', ('UNSPECIFIED'), ('UNSPECIFIED'), ('UNSPECIFIED') ) ;
#91 = CC_DESIGN_SECURITY_CLASSIFICATION ( #63, ( #156 ) ) ;
#92 = DIRECTION ( 'NONE',  ( -3.491481338843133355E-15, 1.224646799147353207E-16, -1.000000000000000000 ) ) ;
#93 = AXIS2_PLACEMENT_3D ( 'NONE', #27, #233, #71 ) ;
#94 = CARTESIAN_POINT ( 'NONE',  ( 2.244816336776805305E-14, 0.7380370868554642083, 6.429409522551257083 ) ) ;
#95 = DIRECTION ( 'NONE',  ( -3.491481338843133355E-15, 1.224646799147353207E-16, -1.000000000000000000 ) ) ;
#96 = PLANE ( 'NONE',  #226 ) ;
#97 = AXIS2_PLACEMENT_3D ( 'NONE', #255, #53, #191 ) ;
#98 = CARTESIAN_POINT ( 'NONE',  ( 1.117274028429802674E-13, -3.918869757271530263E-15, 32.00000000000000000 ) ) ;
#99 = APPROVAL ( #263, 'UNSPECIFIED' ) ;
#100 = DIRECTION ( 'NONE',  ( 0.0000000000000000000, 1.000000000000000000, 0.0000000000000000000 ) ) ;
#101 = EDGE_CURVE ( 'NONE', #34, #34, #133, .T. ) ;
#102 = PERSON_AND_ORGANIZATION ( #90, #188 ) ;
#103 =( NAMED_UNIT ( * ) PLANE_ANGLE_UNIT ( ) SI_UNIT ( $, .RADIAN. ) );
#104 = APPLICATION_PROTOCOL_DEFINITION ( 'international standard', 'config_control_design', 1994, #14 ) ;
#105 = VERTEX_POINT ( 'NONE', #16 ) ;
#106 = COORDINATED_UNIVERSAL_TIME_OFFSET ( 1, 0, .AHEAD. ) ;
#107 = EDGE_CURVE ( 'NONE', #37, #37, #135, .T. ) ;
#108 = ORIENTED_EDGE ( 'NONE', *, *, #78, .T. ) ;
#109 = CARTESIAN_POINT ( 'NONE',  ( 2.244816336776805305E-14, -7.873755792199909958E-16, 6.429409522551257083 ) ) ;
#110 = ADVANCED_FACE ( 'NONE', ( #187, #28 ), #203, .F. ) ;
#111 = DIRECTION ( 'NONE',  ( -3.491481338843133355E-15, 1.224646799147353207E-16, -1.000000000000000000 ) ) ;
#112 = PERSON_AND_ORGANIZATION ( #90, #188 ) ;
#113 = EDGE_LOOP ( 'NONE', ( #228 ) ) ;
#114 = EDGE_LOOP ( 'NONE', ( #246 ) ) ;
#115 = DIRECTION ( 'NONE',  ( -4.275831445896958607E-31, -1.000000000000000000, -1.224646799147353207E-16 ) ) ;
#116 = CYLINDRICAL_SURFACE ( 'NONE', #210, 0.7209999999999998632 ) ;
#117 = CARTESIAN_POINT ( 'NONE',  ( 1.117274028429802674E-13, -3.918869757271530263E-15, 32.00000000000000000 ) ) ;
#118 = CC_DESIGN_PERSON_AND_ORGANIZATION_ASSIGNMENT ( #177, #151, ( #17 ) ) ;
#119 = DIRECTION ( 'NONE',  ( -3.491481338843133355E-15, 1.224646799147353207E-16, -1.000000000000000000 ) ) ;
#120 = CLOSED_SHELL ( 'NONE', ( #216, #128, #110, #153, #24, #142, #64 ) ) ;
#121 = AXIS2_PLACEMENT_3D ( 'NONE', #51, #169, #29 ) ;
#122 = DIRECTION ( 'NONE',  ( 0.0000000000000000000, 1.000000000000000000, 0.0000000000000000000 ) ) ;
#123 = APPROVAL_DATE_TIME ( #77, #205 ) ;
#124 = VERTEX_POINT ( 'NONE', #280 ) ;
#125 = CIRCLE ( 'NONE', #281, 0.7209999999999999742 ) ;
#126 = PERSON_AND_ORGANIZATION ( #90, #188 ) ;
#127 = VERTEX_POINT ( 'NONE', #218 ) ;
#128 = ADVANCED_FACE ( 'NONE', ( #139, #209 ), #116, .T. ) ;
#129 = COORDINATED_UNIVERSAL_TIME_OFFSET ( 1, 0, .AHEAD. ) ;
#130 = ORIENTED_EDGE ( 'NONE', *, *, #159, .T. ) ;
#131 = SHAPE_DEFINITION_REPRESENTATION ( #259, #39 ) ;
#132 = EDGE_LOOP ( 'NONE', ( #265 ) ) ;
#133 = CIRCLE ( 'NONE', #93, 0.4799999999999998712 ) ;
#134 = CARTESIAN_POINT ( 'NONE',  ( 1.745740669421566678E-14, -6.123233995736766282E-16, 5.000000000000000000 ) ) ;
#135 = CIRCLE ( 'NONE', #237, 1.000000000000000444 ) ;
#136 = EDGE_LOOP ( 'NONE', ( #20 ) ) ;
#137 = PLANE ( 'NONE',  #97 ) ;
#138 = AXIS2_PLACEMENT_3D ( 'NONE', #260, #176, #279 ) ;
#139 = FACE_OUTER_BOUND ( 'NONE', #44, .T. ) ;
#140 = CIRCLE ( 'NONE', #190, 0.7380370868554649855 ) ;
#141 = FACE_OUTER_BOUND ( 'NONE', #162, .T. ) ;
#142 = ADVANCED_FACE ( 'NONE', ( #143, #70 ), #72, .T. ) ;
#143 = FACE_OUTER_BOUND ( 'NONE', #68, .T. ) ;
#144 = FACE_BOUND ( 'NONE', #206, .T. ) ;
#145 = DATE_AND_TIME ( #199, #224 ) ;
#146 = PERSON_AND_ORGANIZATION ( #90, #188 ) ;
#147 = MANIFOLD_SOLID_BREP ( 'Corps-Déplacer/Copier1[2]', #31 ) ;
#148 = ADVANCED_FACE ( 'NONE', ( #167, #208 ), #241, .T. ) ;
#149 = APPROVAL_ROLE ( '' ) ;
#150 = CIRCLE ( 'NONE', #67, 0.7209999999999998632 ) ;
#151 = PERSON_AND_ORGANIZATION_ROLE ( 'creator' ) ;
#152 = MANIFOLD_SOLID_BREP ( 'Corps-Déplacer/Copier1[1]', #120 ) ;
#153 = ADVANCED_FACE ( 'NONE', ( #144, #141 ), #165, .T. ) ;
#154 = COORDINATED_UNIVERSAL_TIME_OFFSET ( 1, 0, .AHEAD. ) ;
#155 = DATE_AND_TIME ( #200, #183 ) ;
#156 = PRODUCT_DEFINITION_FORMATION_WITH_SPECIFIED_SOURCE ( 'ANY', '', #214, .NOT_KNOWN. ) ;
#157 = EDGE_LOOP ( 'NONE', ( #182 ) ) ;
#158 = APPROVAL_STATUS ( 'not_yet_approved' ) ;
#159 = EDGE_CURVE ( 'NONE', #105, #105, #10, .T. ) ;
#160 = FACE_OUTER_BOUND ( 'NONE', #136, .T. ) ;
#161 = DATE_AND_TIME ( #46, #269 ) ;
#162 = EDGE_LOOP ( 'NONE', ( #130 ) ) ;
#163 = CC_DESIGN_APPROVAL ( #36, ( #63 ) ) ;
#164 = PLANE ( 'NONE',  #253 ) ;
#165 = CONICAL_SURFACE ( 'NONE', #198, 0.9999999999999970024, 0.2617993877991425244 ) ;
#166 = CARTESIAN_POINT ( 'NONE',  ( 2.199633243471174014E-14, -7.715274834628325378E-16, 6.299999999999999822 ) ) ;
#167 = FACE_BOUND ( 'NONE', #245, .T. ) ;
#168 = CARTESIAN_POINT ( 'NONE',  ( 2.586164117829832693E-14, -9.071042636646145924E-16, 7.407068424105430537 ) ) ;
#169 = DIRECTION ( 'NONE',  ( -3.491481338843133355E-15, 1.224646799147353207E-16, -1.000000000000000000 ) ) ;
#170 = FACE_OUTER_BOUND ( 'NONE', #247, .T. ) ;
#171 = DIRECTION ( 'NONE',  ( 3.491481338843133355E-15, -1.224646799147353207E-16, 1.000000000000000000 ) ) ;
#172 = CC_DESIGN_APPROVAL ( #99, ( #156 ) ) ;
#173 = UNCERTAINTY_MEASURE_WITH_UNIT (LENGTH_MEASURE( 1.000000000000000082E-05 ), #35, 'distance_accuracy_value', 'NONE');
#174 = VERTEX_POINT ( 'NONE', #213 ) ;
#175 = DATE_AND_TIME ( #217, #184 ) ;
#176 = DIRECTION ( 'NONE',  ( 0.0000000000000000000, 0.0000000000000000000, 1.000000000000000000 ) ) ;
#177 = PERSON_AND_ORGANIZATION ( #90, #188 ) ;
#178 = ORIENTED_EDGE ( 'NONE', *, *, #45, .F. ) ;
#179 = APPLICATION_CONTEXT ( 'configuration controlled 3d designs of mechanical parts and assemblies' ) ;
#180 = CARTESIAN_POINT ( 'NONE',  ( 0.0000000000000000000, 0.0000000000000000000, 0.0000000000000000000 ) ) ;
#181 = DIRECTION ( 'NONE',  ( -3.491481338843133355E-15, 1.224646799147353207E-16, -1.000000000000000000 ) ) ;
#182 = ORIENTED_EDGE ( 'NONE', *, *, #101, .T. ) ;
#183 = LOCAL_TIME ( 14, 16, 23.00000000000000000, #129 ) ;
#184 = LOCAL_TIME ( 14, 16, 23.00000000000000000, #240 ) ;
#185 = DIRECTION ( 'NONE',  ( 4.275831445896958607E-31, 1.000000000000000000, 1.224646799147353207E-16 ) ) ;
#186 = FACE_OUTER_BOUND ( 'NONE', #157, .T. ) ;
#187 = FACE_OUTER_BOUND ( 'NONE', #4, .T. ) ;
#188 = ORGANIZATION ( 'UNSPECIFIED', 'UNSPECIFIED', '' ) ;
#189 = CARTESIAN_POINT ( 'NONE',  ( -7.896075687173746431E-32, 2.769570528286595433E-33, -2.261525960150206773E-17 ) ) ;
#190 = AXIS2_PLACEMENT_3D ( 'NONE', #109, #181, #223 ) ;
#191 = DIRECTION ( 'NONE',  ( -4.275831445896958607E-31, -1.000000000000000000, -1.224646799147353207E-16 ) ) ;
#192 = DESIGN_CONTEXT ( 'detailed design', #179, 'design' ) ;
#193 = PLANE ( 'NONE',  #235 ) ;
#194 = CC_DESIGN_PERSON_AND_ORGANIZATION_ASSIGNMENT ( #146, #33, ( #214 ) ) ;
#195 = CARTESIAN_POINT ( 'NONE',  ( 1.110291065752116407E-13, 0.9999999999999965583, 31.80000000000000071 ) ) ;
#196 = CARTESIAN_POINT ( 'NONE',  ( 2.199633243471174014E-14, 0.7209999999999991971, 6.299999999999999822 ) ) ;
#197 = AXIS2_PLACEMENT_3D ( 'NONE', #180, #25, #268 ) ;
#198 = AXIS2_PLACEMENT_3D ( 'NONE', #168, #274, #32 ) ;
#199 = CALENDAR_DATE ( 2021, 16, 12 ) ;
#200 = CALENDAR_DATE ( 2021, 16, 12 ) ;
#201 = EDGE_LOOP ( 'NONE', ( #108 ) ) ;
#202 = CYLINDRICAL_SURFACE ( 'NONE', #215, 0.7209999999999996412 ) ;
#203 = TOROIDAL_SURFACE ( 'NONE', #121, 1.221000000000000085, 0.5000000000000000000 ) ;
#204 = DIRECTION ( 'NONE',  ( -3.491481338843133355E-15, 1.224646799147353207E-16, -1.000000000000000000 ) ) ;
#205 = APPROVAL ( #57, 'UNSPECIFIED' ) ;
#206 = EDGE_LOOP ( 'NONE', ( #222 ) ) ;
#207 = DIRECTION ( 'NONE',  ( -3.491481338843133355E-15, 1.224646799147353207E-16, -1.000000000000000000 ) ) ;
#208 = FACE_OUTER_BOUND ( 'NONE', #5, .T. ) ;
#209 = FACE_OUTER_BOUND ( 'NONE', #201, .T. ) ;
#210 = AXIS2_PLACEMENT_3D ( 'NONE', #257, #275, #231 ) ;
#211 = DIRECTION ( 'NONE',  ( 0.0000000000000000000, 1.000000000000000000, 0.0000000000000000000 ) ) ;
#212 = ADVANCED_FACE ( 'NONE', ( #186 ), #96, .F. ) ;
#213 = CARTESIAN_POINT ( 'NONE',  ( 3.140322965808199806E-15, 0.7209999999999991971, 0.8994242446241208500 ) ) ;
#214 = PRODUCT ( '969503', '969503', '', ( #278 ) ) ;
#215 = AXIS2_PLACEMENT_3D ( 'NONE', #250, #207, #185 ) ;
#216 = ADVANCED_FACE ( 'NONE', ( #252 ), #137, .F. ) ;
#217 = CALENDAR_DATE ( 2021, 16, 12 ) ;
#218 = CARTESIAN_POINT ( 'NONE',  ( 1.117274028429802674E-13, 0.7999999999999963807, 32.00000000000000000 ) ) ;
#219 = AXIS2_PLACEMENT_3D ( 'NONE', #47, #92, #69 ) ;
#220 = PRODUCT_RELATED_PRODUCT_CATEGORY ( 'detail', '', ( #214 ) ) ;
#221 = ORIENTED_EDGE ( 'NONE', *, *, #159, .F. ) ;
#222 = ORIENTED_EDGE ( 'NONE', *, *, #15, .F. ) ;
#223 = DIRECTION ( 'NONE',  ( 0.0000000000000000000, 1.000000000000000000, 0.0000000000000000000 ) ) ;
#224 = LOCAL_TIME ( 14, 16, 23.00000000000000000, #106 ) ;
#225 = EDGE_CURVE ( 'NONE', #124, #124, #150, .T. ) ;
#226 = AXIS2_PLACEMENT_3D ( 'NONE', #189, #12, #73 ) ;
#227 = APPROVAL_ROLE ( '' ) ;
#228 = ORIENTED_EDGE ( 'NONE', *, *, #74, .F. ) ;
#229 = DATE_TIME_ROLE ( 'classification_date' ) ;
#230 = FACE_OUTER_BOUND ( 'NONE', #113, .T. ) ;
#231 = DIRECTION ( 'NONE',  ( 4.275831445896958607E-31, 1.000000000000000000, 1.224646799147353207E-16 ) ) ;
#232 = VERTEX_POINT ( 'NONE', #49 ) ;
#233 = DIRECTION ( 'NONE',  ( -3.491481338843133355E-15, 1.224646799147353207E-16, -1.000000000000000000 ) ) ;
#234 = DIRECTION ( 'NONE',  ( 0.0000000000000000000, 1.000000000000000000, 0.0000000000000000000 ) ) ;
#235 = AXIS2_PLACEMENT_3D ( 'NONE', #276, #258, #115 ) ;
#236 = DIRECTION ( 'NONE',  ( 0.0000000000000000000, 1.000000000000000000, 0.0000000000000000000 ) ) ;
#237 = AXIS2_PLACEMENT_3D ( 'NONE', #7, #76, #234 ) ;
#238 = APPROVAL_DATE_TIME ( #145, #99 ) ;
#239 = PERSON_AND_ORGANIZATION_ROLE ( 'creator' ) ;
#240 = COORDINATED_UNIVERSAL_TIME_OFFSET ( 1, 0, .AHEAD. ) ;
#241 = CONICAL_SURFACE ( 'NONE', #248, 0.7209999999999993081, 0.2617993877991429685 ) ;
#242 = CARTESIAN_POINT ( 'NONE',  ( 4.731839565957901202E-32, 0.4799999999999998712, 1.355252715606880543E-17 ) ) ;
#243 = APPROVAL_ROLE ( '' ) ;
#244 = ADVANCED_FACE ( 'NONE', ( #170 ), #193, .T. ) ;
#245 = EDGE_LOOP ( 'NONE', ( #267 ) ) ;
#246 = ORIENTED_EDGE ( 'NONE', *, *, #15, .T. ) ;
#247 = EDGE_LOOP ( 'NONE', ( #178 ) ) ;
#248 = AXIS2_PLACEMENT_3D ( 'NONE', #6, #171, #54 ) ;
#249 = APPROVAL_DATE_TIME ( #155, #36 ) ;
#250 = CARTESIAN_POINT ( 'NONE',  ( 0.0000000000000000000, 0.0000000000000000000, 0.0000000000000000000 ) ) ;
#251 = FACE_OUTER_BOUND ( 'NONE', #19, .T. ) ;
#252 = FACE_OUTER_BOUND ( 'NONE', #66, .T. ) ;
#253 = AXIS2_PLACEMENT_3D ( 'NONE', #266, #204, #88 ) ;
#254 = DIRECTION ( 'NONE',  ( -3.491481338843133355E-15, 1.224646799147353207E-16, -1.000000000000000000 ) ) ;
#255 = CARTESIAN_POINT ( 'NONE',  ( 1.745740669421566678E-14, 5.406634016495986331E-33, 5.000000000000000000 ) ) ;
#256 = CC_DESIGN_PERSON_AND_ORGANIZATION_ASSIGNMENT ( #102, #43, ( #156 ) ) ;
#257 = CARTESIAN_POINT ( 'NONE',  ( 0.0000000000000000000, 0.0000000000000000000, 0.0000000000000000000 ) ) ;
#258 = DIRECTION ( 'NONE',  ( 3.491481338843133355E-15, -1.224646799147353207E-16, 1.000000000000000000 ) ) ;
#259 = PRODUCT_DEFINITION_SHAPE ( 'NONE', 'NONE',  #17 ) ;
#260 = CARTESIAN_POINT ( 'NONE',  ( 0.0000000000000000000, 0.0000000000000000000, 0.0000000000000000000 ) ) ;
#261 = APPROVAL_PERSON_ORGANIZATION ( #112, #36, #227 ) ;
#262 = AXIS2_PLACEMENT_3D ( 'NONE', #134, #111, #48 ) ;
#263 = APPROVAL_STATUS ( 'not_yet_approved' ) ;
#264 = PERSON_AND_ORGANIZATION_ROLE ( 'classification_officer' ) ;
#265 = ORIENTED_EDGE ( 'NONE', *, *, #45, .T. ) ;
#266 = CARTESIAN_POINT ( 'NONE',  ( 1.117274028429802674E-13, 5.999039130647374325E-33, 32.00000000000000000 ) ) ;
#267 = ORIENTED_EDGE ( 'NONE', *, *, #101, .F. ) ;
#268 = DIRECTION ( 'NONE',  ( 4.275831445896959482E-31, 1.000000000000000000, 1.224646799147353454E-16 ) ) ;
#269 = LOCAL_TIME ( 14, 16, 23.00000000000000000, #62 ) ;
#270 = AXIS2_PLACEMENT_3D ( 'NONE', #98, #75, #236 ) ;
#271 = FACE_OUTER_BOUND ( 'NONE', #41, .T. ) ;
#272 = CARTESIAN_POINT ( 'NONE',  ( 2.586164117829832693E-14, -9.071042636646145924E-16, 7.407068424105430537 ) ) ;
#273 = DIRECTION ( 'NONE',  ( -3.491481338843133355E-15, 1.224646799147353207E-16, -1.000000000000000000 ) ) ;
#274 = DIRECTION ( 'NONE',  ( 3.491481338843133355E-15, -1.224646799147353207E-16, 1.000000000000000000 ) ) ;
#275 = DIRECTION ( 'NONE',  ( -3.491481338843133355E-15, 1.224646799147353207E-16, -1.000000000000000000 ) ) ;
#276 = CARTESIAN_POINT ( 'NONE',  ( 1.745740669421566678E-14, 5.406634016495986331E-33, 5.000000000000000000 ) ) ;
#277 = APPLICATION_PROTOCOL_DEFINITION ( 'international standard', 'config_control_design', 1994, #179 ) ;
#278 = MECHANICAL_CONTEXT ( 'NONE', #14, 'mechanical' ) ;
#279 = DIRECTION ( 'NONE',  ( 1.000000000000000000, 0.0000000000000000000, 0.0000000000000000000 ) ) ;
#280 = CARTESIAN_POINT ( 'NONE',  ( 1.745740669421566678E-14, 0.7209999999999991971, 5.000000000000000000 ) ) ;
#281 = AXIS2_PLACEMENT_3D ( 'NONE', #166, #95, #211 ) ;
#282 = ORIENTED_EDGE ( 'NONE', *, *, #107, .F. ) ;
#283 = PERSON_AND_ORGANIZATION ( #90, #188 ) ;
ENDSEC;
END-ISO-10303-21;
