ISO-10303-21;
HEADER;
FILE_DESCRIPTION (( 'STEP AP203' ),
    '1' );
FILE_NAME ('969502.step',
    '2021-12-16T13:16:22',
    ( '' ),
    ( '' ),
    'SwSTEP 2.0',
    'SolidWorks 2019',
    '' );
FILE_SCHEMA (( 'CONFIG_CONTROL_DESIGN' ));
ENDSEC;

DATA;
#1 = PERSON_AND_ORGANIZATION_ROLE ( 'design_supplier' ) ;
#2 = APPROVAL_STATUS ( 'not_yet_approved' ) ;
#3 = CALENDAR_DATE ( 2021, 16, 12 ) ;
#4 = CC_DESIGN_APPROVAL ( #92, ( #107 ) ) ;
#5 = CARTESIAN_POINT ( 'NONE',  ( 2.685462277668888061E-14, -9.419333696533103134E-16, 7.691469657285032291 ) ) ;
#6 = ORIENTED_EDGE ( 'NONE', *, *, #205, .F. ) ;
#7 = FACE_OUTER_BOUND ( 'NONE', #267, .T. ) ;
#8 = CIRCLE ( 'NONE', #197, 0.6179999999999994387 ) ;
#9 = LOCAL_TIME ( 14, 16, 22.00000000000000000, #145 ) ;
#10 = ADVANCED_FACE ( 'NONE', ( #7 ), #163, .F. ) ;
#11 = ORIENTED_EDGE ( 'NONE', *, *, #77, .T. ) ;
#12 = APPROVAL_ROLE ( '' ) ;
#13 = FACE_OUTER_BOUND ( 'NONE', #75, .T. ) ;
#14 = CC_DESIGN_APPROVAL ( #25, ( #139 ) ) ;
#15 = AXIS2_PLACEMENT_3D ( 'NONE', #110, #83, #259 ) ;
#16 = FACE_OUTER_BOUND ( 'NONE', #164, .T. ) ;
#17 = CC_DESIGN_DATE_AND_TIME_ASSIGNMENT ( #241, #140, ( #107 ) ) ;
#18 = PLANE ( 'NONE',  #231 ) ;
#19 = DIRECTION ( 'NONE',  ( 3.491481338843133355E-15, -1.224646799147353207E-16, 1.000000000000000000 ) ) ;
#20 = APPROVAL_PERSON_ORGANIZATION ( #46, #25, #12 ) ;
#21 = CARTESIAN_POINT ( 'NONE',  ( 1.110291065752116407E-13, -3.894376821288583549E-15, 31.80000000000000071 ) ) ;
#22 = DATE_AND_TIME ( #3, #97 ) ;
#23 = APPROVAL_DATE_TIME ( #22, #92 ) ;
#24 = CLOSED_SHELL ( 'NONE', ( #159, #243, #280, #112, #117, #170, #10 ) ) ;
#25 = APPROVAL ( #141, 'UNSPECIFIED' ) ;
#26 = MECHANICAL_CONTEXT ( 'NONE', #59, 'mechanical' ) ;
#27 = PERSON_AND_ORGANIZATION_ROLE ( 'design_owner' ) ;
#28 = DIRECTION ( 'NONE',  ( 0.0000000000000000000, 1.000000000000000000, 0.0000000000000000000 ) ) ;
#29 = DIRECTION ( 'NONE',  ( 4.275831445896958607E-31, 1.000000000000000000, 1.224646799147353207E-16 ) ) ;
#30 = ADVANCED_FACE ( 'NONE', ( #76 ), #80, .T. ) ;
#31 = CARTESIAN_POINT ( 'NONE',  ( 1.117274028429802674E-13, -3.918869757271530263E-15, 32.00000000000000000 ) ) ;
#32 = CONICAL_SURFACE ( 'NONE', #84, 0.6179999999999994387, 0.2617993877991430796 ) ;
#33 = ORIENTED_EDGE ( 'NONE', *, *, #233, .F. ) ;
#34 = DIRECTION ( 'NONE',  ( -3.491481338843133355E-15, 1.224646799147353207E-16, -1.000000000000000000 ) ) ;
#35 = DIRECTION ( 'NONE',  ( 3.491481338843133355E-15, -1.224646799147353207E-16, 1.000000000000000000 ) ) ;
#36 = APPLICATION_CONTEXT ( 'configuration controlled 3d designs of mechanical parts and assemblies' ) ;
#37 = DIRECTION ( 'NONE',  ( -3.491481338843133355E-15, 1.224646799147353207E-16, -1.000000000000000000 ) ) ;
#38 = CARTESIAN_POINT ( 'NONE',  ( 1.745740669421566678E-14, 0.6179999999999993276, 5.000000000000000000 ) ) ;
#39 = CARTESIAN_POINT ( 'NONE',  ( 1.745740669421566678E-14, 4.634257728425130456E-33, 5.000000000000000000 ) ) ;
#40 = ADVANCED_BREP_SHAPE_REPRESENTATION ( '969502', ( #195, #100, #114 ), #122 ) ;
#41 = VERTEX_POINT ( 'NONE', #130 ) ;
#42 = ORGANIZATION ( 'UNSPECIFIED', 'UNSPECIFIED', '' ) ;
#43 = DIRECTION ( 'NONE',  ( 0.0000000000000000000, 1.000000000000000000, 0.0000000000000000000 ) ) ;
#44 = VERTEX_POINT ( 'NONE', #137 ) ;
#45 = VERTEX_POINT ( 'NONE', #67 ) ;
#46 = PERSON_AND_ORGANIZATION ( #260, #42 ) ;
#47 =( NAMED_UNIT ( * ) SI_UNIT ( $, .STERADIAN. ) SOLID_ANGLE_UNIT ( ) );
#48 = ADVANCED_FACE ( 'NONE', ( #223, #253 ), #32, .T. ) ;
#49 = DATE_AND_TIME ( #204, #9 ) ;
#50 = AXIS2_PLACEMENT_3D ( 'NONE', #190, #37, #214 ) ;
#51 = ORIENTED_EDGE ( 'NONE', *, *, #225, .T. ) ;
#52 = ORIENTED_EDGE ( 'NONE', *, *, #173, .F. ) ;
#53 = ORIENTED_EDGE ( 'NONE', *, *, #173, .T. ) ;
#54 = DIRECTION ( 'NONE',  ( 0.0000000000000000000, 1.000000000000000000, 0.0000000000000000000 ) ) ;
#55 = PRODUCT_DEFINITION_FORMATION_WITH_SPECIFIED_SOURCE ( 'ANY', '', #254, .NOT_KNOWN. ) ;
#56 = AXIS2_PLACEMENT_3D ( 'NONE', #57, #79, #28 ) ;
#57 = CARTESIAN_POINT ( 'NONE',  ( 2.209901523388373340E-14, -7.751291112285171457E-16, 6.329409522551254774 ) ) ;
#58 = VERTEX_POINT ( 'NONE', #191 ) ;
#59 = APPLICATION_CONTEXT ( 'configuration controlled 3d designs of mechanical parts and assemblies' ) ;
#60 = CARTESIAN_POINT ( 'NONE',  ( -6.506430467257235629E-32, 2.282148598921491915E-33, -1.863515750427317245E-17 ) ) ;
#61 = CC_DESIGN_APPROVAL ( #219, ( #55 ) ) ;
#62 = ADVANCED_FACE ( 'NONE', ( #210, #274 ), #179, .T. ) ;
#63 = VERTEX_POINT ( 'NONE', #155 ) ;
#64 = FACE_BOUND ( 'NONE', #250, .T. ) ;
#65 = PERSON_AND_ORGANIZATION ( #260, #42 ) ;
#66 = DATE_AND_TIME ( #263, #85 ) ;
#67 = CARTESIAN_POINT ( 'NONE',  ( 2.685462277668888061E-14, 0.9999999999999961142, 7.691469657285032291 ) ) ;
#68 = CIRCLE ( 'NONE', #212, 0.8000000000000002665 ) ;
#69 = DATE_AND_TIME ( #174, #262 ) ;
#70 = AXIS2_PLACEMENT_3D ( 'NONE', #5, #268, #149 ) ;
#71 = CC_DESIGN_PERSON_AND_ORGANIZATION_ASSIGNMENT ( #222, #1, ( #55 ) ) ;
#72 = PERSON_AND_ORGANIZATION ( #260, #42 ) ;
#73 = CARTESIAN_POINT ( 'NONE',  ( 0.0000000000000000000, 0.0000000000000000000, 0.0000000000000000000 ) ) ;
#74 = FACE_OUTER_BOUND ( 'NONE', #275, .T. ) ;
#75 = EDGE_LOOP ( 'NONE', ( #150 ) ) ;
#76 = FACE_OUTER_BOUND ( 'NONE', #232, .T. ) ;
#77 = EDGE_CURVE ( 'NONE', #86, #86, #68, .T. ) ;
#78 = APPROVAL_DATE_TIME ( #49, #25 ) ;
#79 = DIRECTION ( 'NONE',  ( -3.491481338843133355E-15, 1.224646799147353207E-16, -1.000000000000000000 ) ) ;
#80 = PLANE ( 'NONE',  #256 ) ;
#81 = FACE_OUTER_BOUND ( 'NONE', #226, .T. ) ;
#82 = DIRECTION ( 'NONE',  ( -3.491481338843133355E-15, 1.224646799147353207E-16, -1.000000000000000000 ) ) ;
#83 = DIRECTION ( 'NONE',  ( -3.491481338843133355E-15, 1.224646799147353207E-16, -1.000000000000000000 ) ) ;
#84 = AXIS2_PLACEMENT_3D ( 'NONE', #127, #146, #227 ) ;
#85 = LOCAL_TIME ( 14, 16, 22.00000000000000000, #175 ) ;
#86 = VERTEX_POINT ( 'NONE', #87 ) ;
#87 = CARTESIAN_POINT ( 'NONE',  ( 1.117274028429802674E-13, 0.7999999999999963807, 32.00000000000000000 ) ) ;
#88 = DIRECTION ( 'NONE',  ( 0.0000000000000000000, 0.0000000000000000000, 1.000000000000000000 ) ) ;
#89 = PERSON_AND_ORGANIZATION_ROLE ( 'classification_officer' ) ;
#90 = PERSON_AND_ORGANIZATION ( #260, #42 ) ;
#91 = CALENDAR_DATE ( 2021, 16, 12 ) ;
#92 = APPROVAL ( #115, 'UNSPECIFIED' ) ;
#93 = CIRCLE ( 'NONE', #15, 0.6179999999999999938 ) ;
#94 = CARTESIAN_POINT ( 'NONE',  ( 1.117274028429802674E-13, 5.999039130647374325E-33, 32.00000000000000000 ) ) ;
#95 = DIRECTION ( 'NONE',  ( -3.491481338843133355E-15, 1.224646799147353207E-16, -1.000000000000000000 ) ) ;
#96 = EDGE_LOOP ( 'NONE', ( #51 ) ) ;
#97 = LOCAL_TIME ( 14, 16, 22.00000000000000000, #116 ) ;
#98 = AXIS2_PLACEMENT_3D ( 'NONE', #134, #194, #255 ) ;
#99 = ORIENTED_EDGE ( 'NONE', *, *, #102, .F. ) ;
#100 = MANIFOLD_SOLID_BREP ( 'Corps-Déplacer/Copier1[2]', #109 ) ;
#101 = EDGE_LOOP ( 'NONE', ( #169 ) ) ;
#102 = EDGE_CURVE ( 'NONE', #58, #58, #242, .T. ) ;
#103 = CARTESIAN_POINT ( 'NONE',  ( 2.164718430082742365E-14, -8.673617379884035472E-16, 6.199999999999999289 ) ) ;
#104 = DIRECTION ( 'NONE',  ( -3.491481338843133355E-15, 1.224646799147353207E-16, -1.000000000000000000 ) ) ;
#105 = FACE_OUTER_BOUND ( 'NONE', #229, .T. ) ;
#106 = DIRECTION ( 'NONE',  ( -3.491481338843133355E-15, 1.224646799147353207E-16, -1.000000000000000000 ) ) ;
#107 = PRODUCT_DEFINITION ( 'UNKNOWN', '', #55, #185 ) ;
#108 = APPROVAL_PERSON_ORGANIZATION ( #72, #92, #177 ) ;
#109 = CLOSED_SHELL ( 'NONE', ( #192, #48, #62, #30 ) ) ;
#110 = CARTESIAN_POINT ( 'NONE',  ( 1.745740669421566678E-14, -6.123233995736766282E-16, 5.000000000000000000 ) ) ;
#111 = COORDINATED_UNIVERSAL_TIME_OFFSET ( 1, 0, .AHEAD. ) ;
#112 = ADVANCED_FACE ( 'NONE', ( #118, #201 ), #228, .T. ) ;
#113 = PERSON_AND_ORGANIZATION ( #260, #42 ) ;
#114 = AXIS2_PLACEMENT_3D ( 'NONE', #218, #88, #264 ) ;
#115 = APPROVAL_STATUS ( 'not_yet_approved' ) ;
#116 = COORDINATED_UNIVERSAL_TIME_OFFSET ( 1, 0, .AHEAD. ) ;
#117 = ADVANCED_FACE ( 'NONE', ( #74, #144 ), #230, .T. ) ;
#118 = FACE_BOUND ( 'NONE', #249, .T. ) ;
#119 = ORIENTED_EDGE ( 'NONE', *, *, #165, .T. ) ;
#120 = AXIS2_PLACEMENT_3D ( 'NONE', #21, #211, #167 ) ;
#121 = ORIENTED_EDGE ( 'NONE', *, *, #148, .F. ) ;
#122 =( GEOMETRIC_REPRESENTATION_CONTEXT ( 3 ) GLOBAL_UNCERTAINTY_ASSIGNED_CONTEXT ( ( #208 ) ) GLOBAL_UNIT_ASSIGNED_CONTEXT ( ( #240, #265, #47 ) ) REPRESENTATION_CONTEXT ( 'NONE', 'WORKASPACE' ) );
#123 = AXIS2_PLACEMENT_3D ( 'NONE', #224, #34, #125 ) ;
#124 = ORIENTED_EDGE ( 'NONE', *, *, #148, .T. ) ;
#125 = DIRECTION ( 'NONE',  ( 4.275831445896959482E-31, 1.000000000000000000, 1.224646799147353454E-16 ) ) ;
#126 = CC_DESIGN_PERSON_AND_ORGANIZATION_ASSIGNMENT ( #113, #176, ( #55 ) ) ;
#127 = CARTESIAN_POINT ( 'NONE',  ( 2.645168307299020188E-15, -9.278001473761587549E-17, 0.7576063139364993537 ) ) ;
#128 = PLANE ( 'NONE',  #138 ) ;
#129 = AXIS2_PLACEMENT_3D ( 'NONE', #277, #156, #213 ) ;
#130 = CARTESIAN_POINT ( 'NONE',  ( 1.745740669421566678E-14, 0.6179999999999993276, 5.000000000000000000 ) ) ;
#131 = EDGE_CURVE ( 'NONE', #282, #282, #216, .T. ) ;
#132 = CARTESIAN_POINT ( 'NONE',  ( 2.685462277668888061E-14, -9.419333696533103134E-16, 7.691469657285032291 ) ) ;
#133 = VERTEX_POINT ( 'NONE', #234 ) ;
#134 = CARTESIAN_POINT ( 'NONE',  ( 0.0000000000000000000, 0.0000000000000000000, 0.0000000000000000000 ) ) ;
#135 = CC_DESIGN_DATE_AND_TIME_ASSIGNMENT ( #66, #158, ( #139 ) ) ;
#136 = EDGE_LOOP ( 'NONE', ( #278 ) ) ;
#137 = CARTESIAN_POINT ( 'NONE',  ( 4.731839565957903391E-32, 0.4149999999999999245, 1.355252715606880543E-17 ) ) ;
#138 = AXIS2_PLACEMENT_3D ( 'NONE', #60, #19, #154 ) ;
#139 = SECURITY_CLASSIFICATION ( '', '', #244 ) ;
#140 = DATE_TIME_ROLE ( 'creation_date' ) ;
#141 = APPROVAL_STATUS ( 'not_yet_approved' ) ;
#142 = DIRECTION ( 'NONE',  ( -4.275831445896958607E-31, -1.000000000000000000, -1.224646799147353207E-16 ) ) ;
#143 = CIRCLE ( 'NONE', #120, 1.000000000000000444 ) ;
#144 = FACE_OUTER_BOUND ( 'NONE', #273, .T. ) ;
#145 = COORDINATED_UNIVERSAL_TIME_OFFSET ( 1, 0, .AHEAD. ) ;
#146 = DIRECTION ( 'NONE',  ( 3.491481338843133355E-15, -1.224646799147353207E-16, 1.000000000000000000 ) ) ;
#147 = ORIENTED_EDGE ( 'NONE', *, *, #205, .T. ) ;
#148 = EDGE_CURVE ( 'NONE', #63, #63, #193, .T. ) ;
#149 = DIRECTION ( 'NONE',  ( 0.0000000000000000000, -1.000000000000000000, 0.0000000000000000000 ) ) ;
#150 = ORIENTED_EDGE ( 'NONE', *, *, #102, .T. ) ;
#151 = VERTEX_POINT ( 'NONE', #237 ) ;
#152 = FACE_OUTER_BOUND ( 'NONE', #202, .T. ) ;
#153 = AXIS2_PLACEMENT_3D ( 'NONE', #132, #82, #43 ) ;
#154 = DIRECTION ( 'NONE',  ( -4.275831445896958607E-31, -1.000000000000000000, -1.224646799147353207E-16 ) ) ;
#155 = CARTESIAN_POINT ( 'NONE',  ( 2.164718430082742680E-14, 0.6179999999999993276, 6.200000000000000178 ) ) ;
#156 = DIRECTION ( 'NONE',  ( -3.491481338843133355E-15, 1.224646799147353207E-16, -1.000000000000000000 ) ) ;
#157 = APPROVAL_DATE_TIME ( #69, #219 ) ;
#158 = DATE_TIME_ROLE ( 'classification_date' ) ;
#159 = ADVANCED_FACE ( 'NONE', ( #279 ), #18, .F. ) ;
#160 = AXIS2_PLACEMENT_3D ( 'NONE', #94, #181, #29 ) ;
#161 = APPLICATION_PROTOCOL_DEFINITION ( 'international standard', 'config_control_design', 1994, #59 ) ;
#162 = DIRECTION ( 'NONE',  ( 4.275831445896957731E-31, 1.000000000000000000, 1.224646799147353207E-16 ) ) ;
#163 = PLANE ( 'NONE',  #160 ) ;
#164 = EDGE_LOOP ( 'NONE', ( #166 ) ) ;
#165 = EDGE_CURVE ( 'NONE', #151, #151, #143, .T. ) ;
#166 = ORIENTED_EDGE ( 'NONE', *, *, #131, .F. ) ;
#167 = DIRECTION ( 'NONE',  ( 0.0000000000000000000, 1.000000000000000000, 0.0000000000000000000 ) ) ;
#168 = CYLINDRICAL_SURFACE ( 'NONE', #98, 0.6180000000000001048 ) ;
#169 = ORIENTED_EDGE ( 'NONE', *, *, #131, .T. ) ;
#170 = ADVANCED_FACE ( 'NONE', ( #105, #64 ), #266, .T. ) ;
#171 = CC_DESIGN_SECURITY_CLASSIFICATION ( #139, ( #55 ) ) ;
#172 = DIRECTION ( 'NONE',  ( 3.491481338843133355E-15, -1.224646799147353207E-16, 1.000000000000000000 ) ) ;
#173 = EDGE_CURVE ( 'NONE', #41, #41, #93, .T. ) ;
#174 = CALENDAR_DATE ( 2021, 16, 12 ) ;
#175 = COORDINATED_UNIVERSAL_TIME_OFFSET ( 1, 0, .AHEAD. ) ;
#176 = PERSON_AND_ORGANIZATION_ROLE ( 'creator' ) ;
#177 = APPROVAL_ROLE ( '' ) ;
#178 = CARTESIAN_POINT ( 'NONE',  ( 1.745740669421566678E-14, 4.634257728425130456E-33, 5.000000000000000000 ) ) ;
#179 = CYLINDRICAL_SURFACE ( 'NONE', #206, 0.6179999999999996607 ) ;
#180 = ORIENTED_EDGE ( 'NONE', *, *, #165, .F. ) ;
#181 = DIRECTION ( 'NONE',  ( -3.491481338843133355E-15, 1.224646799147353207E-16, -1.000000000000000000 ) ) ;
#182 = AXIS2_PLACEMENT_3D ( 'NONE', #276, #215, #235 ) ;
#183 = EDGE_LOOP ( 'NONE', ( #147 ) ) ;
#184 = ORIENTED_EDGE ( 'NONE', *, *, #225, .F. ) ;
#185 = DESIGN_CONTEXT ( 'detailed design', #36, 'design' ) ;
#186 = EDGE_LOOP ( 'NONE', ( #53 ) ) ;
#187 = DIRECTION ( 'NONE',  ( -4.275831445896958607E-31, -1.000000000000000000, -1.224646799147353207E-16 ) ) ;
#188 = CC_DESIGN_PERSON_AND_ORGANIZATION_ASSIGNMENT ( #199, #27, ( #254 ) ) ;
#189 = DIRECTION ( 'NONE',  ( -3.491481338843133355E-15, 1.224646799147353207E-16, -1.000000000000000000 ) ) ;
#190 = CARTESIAN_POINT ( 'NONE',  ( 1.117274028429802674E-13, -3.918869757271530263E-15, 32.00000000000000000 ) ) ;
#191 = CARTESIAN_POINT ( 'NONE',  ( 2.209901523388373340E-14, 0.6350370868554642279, 6.329409522551254774 ) ) ;
#192 = ADVANCED_FACE ( 'NONE', ( #257 ), #128, .F. ) ;
#193 = CIRCLE ( 'NONE', #129, 0.6180000000000001048 ) ;
#194 = DIRECTION ( 'NONE',  ( -3.491481338843133355E-15, 1.224646799147353207E-16, -1.000000000000000000 ) ) ;
#195 = MANIFOLD_SOLID_BREP ( 'Corps-Déplacer/Copier1[1]', #24 ) ;
#196 = APPLICATION_PROTOCOL_DEFINITION ( 'international standard', 'config_control_design', 1994, #36 ) ;
#197 = AXIS2_PLACEMENT_3D ( 'NONE', #236, #189, #238 ) ;
#198 = COORDINATED_UNIVERSAL_TIME_OFFSET ( 1, 0, .AHEAD. ) ;
#199 = PERSON_AND_ORGANIZATION ( #260, #42 ) ;
#200 = APPROVAL_ROLE ( '' ) ;
#201 = FACE_OUTER_BOUND ( 'NONE', #96, .T. ) ;
#202 = EDGE_LOOP ( 'NONE', ( #121 ) ) ;
#203 = APPROVAL_PERSON_ORGANIZATION ( #65, #219, #200 ) ;
#204 = CALENDAR_DATE ( 2021, 16, 12 ) ;
#205 = EDGE_CURVE ( 'NONE', #133, #133, #8, .T. ) ;
#206 = AXIS2_PLACEMENT_3D ( 'NONE', #73, #247, #162 ) ;
#207 = CARTESIAN_POINT ( 'NONE',  ( 1.745740669421566678E-14, -6.123233995736766282E-16, 5.000000000000000000 ) ) ;
#208 = UNCERTAINTY_MEASURE_WITH_UNIT (LENGTH_MEASURE( 1.000000000000000082E-05 ), #240, 'distance_accuracy_value', 'NONE');
#209 = PRODUCT_DEFINITION_SHAPE ( 'NONE', 'NONE',  #107 ) ;
#210 = FACE_OUTER_BOUND ( 'NONE', #251, .T. ) ;
#211 = DIRECTION ( 'NONE',  ( -3.491481338843133355E-15, 1.224646799147353207E-16, -1.000000000000000000 ) ) ;
#212 = AXIS2_PLACEMENT_3D ( 'NONE', #31, #95, #54 ) ;
#213 = DIRECTION ( 'NONE',  ( 0.0000000000000000000, 1.000000000000000000, 0.0000000000000000000 ) ) ;
#214 = DIRECTION ( 'NONE',  ( 0.0000000000000000000, 1.000000000000000000, 0.0000000000000000000 ) ) ;
#215 = DIRECTION ( 'NONE',  ( -3.491481338843133355E-15, 1.224646799147353207E-16, -1.000000000000000000 ) ) ;
#216 = CIRCLE ( 'NONE', #246, 0.6179999999999999938 ) ;
#217 = PERSON_AND_ORGANIZATION_ROLE ( 'creator' ) ;
#218 = CARTESIAN_POINT ( 'NONE',  ( 0.0000000000000000000, 0.0000000000000000000, 0.0000000000000000000 ) ) ;
#219 = APPROVAL ( #2, 'UNSPECIFIED' ) ;
#220 = PERSON_AND_ORGANIZATION ( #260, #42 ) ;
#221 = TOROIDAL_SURFACE ( 'NONE', #258, 1.118000000000000327, 0.4999999999999998890 ) ;
#222 = PERSON_AND_ORGANIZATION ( #260, #42 ) ;
#223 = FACE_BOUND ( 'NONE', #245, .T. ) ;
#224 = CARTESIAN_POINT ( 'NONE',  ( 0.0000000000000000000, 0.0000000000000000000, 0.0000000000000000000 ) ) ;
#225 = EDGE_CURVE ( 'NONE', #45, #45, #270, .T. ) ;
#226 = EDGE_LOOP ( 'NONE', ( #124 ) ) ;
#227 = DIRECTION ( 'NONE',  ( -6.232782991544458571E-31, -1.000000000000000000, -1.754372447387549309E-16 ) ) ;
#228 = CONICAL_SURFACE ( 'NONE', #70, 0.9999999999999970024, 0.2617993877991427465 ) ;
#229 = EDGE_LOOP ( 'NONE', ( #180 ) ) ;
#230 = CYLINDRICAL_SURFACE ( 'NONE', #123, 0.9999999999999986677 ) ;
#231 = AXIS2_PLACEMENT_3D ( 'NONE', #39, #172, #187 ) ;
#232 = EDGE_LOOP ( 'NONE', ( #52 ) ) ;
#233 = EDGE_CURVE ( 'NONE', #44, #44, #281, .T. ) ;
#234 = CARTESIAN_POINT ( 'NONE',  ( 2.645168307299020582E-15, 0.6179999999999993276, 0.7576063139364994647 ) ) ;
#235 = DIRECTION ( 'NONE',  ( 4.275831445896958607E-31, 1.000000000000000000, 1.224646799147353207E-16 ) ) ;
#236 = CARTESIAN_POINT ( 'NONE',  ( 2.645168307299020188E-15, -9.278001473761587549E-17, 0.7576063139364993537 ) ) ;
#237 = CARTESIAN_POINT ( 'NONE',  ( 1.110291065752116407E-13, 0.9999999999999965583, 31.80000000000000071 ) ) ;
#238 = DIRECTION ( 'NONE',  ( 6.232782991544458571E-31, 1.000000000000000000, 1.754372447387549309E-16 ) ) ;
#239 = CC_DESIGN_PERSON_AND_ORGANIZATION_ASSIGNMENT ( #220, #217, ( #107 ) ) ;
#240 =( LENGTH_UNIT ( ) NAMED_UNIT ( * ) SI_UNIT ( .MILLI., .METRE. ) );
#241 = DATE_AND_TIME ( #91, #269 ) ;
#242 = CIRCLE ( 'NONE', #56, 0.6350370868554650050 ) ;
#243 = ADVANCED_FACE ( 'NONE', ( #16, #81 ), #168, .T. ) ;
#244 = SECURITY_CLASSIFICATION_LEVEL ( 'unclassified' ) ;
#245 = EDGE_LOOP ( 'NONE', ( #33 ) ) ;
#246 = AXIS2_PLACEMENT_3D ( 'NONE', #207, #104, #261 ) ;
#247 = DIRECTION ( 'NONE',  ( -3.491481338843133355E-15, 1.224646799147353207E-16, -1.000000000000000000 ) ) ;
#248 = CC_DESIGN_PERSON_AND_ORGANIZATION_ASSIGNMENT ( #90, #89, ( #139 ) ) ;
#249 = EDGE_LOOP ( 'NONE', ( #99 ) ) ;
#250 = EDGE_LOOP ( 'NONE', ( #11 ) ) ;
#251 = EDGE_LOOP ( 'NONE', ( #6 ) ) ;
#252 = PRODUCT_RELATED_PRODUCT_CATEGORY ( 'detail', '', ( #254 ) ) ;
#253 = FACE_OUTER_BOUND ( 'NONE', #183, .T. ) ;
#254 = PRODUCT ( '969502', '969502', '', ( #26 ) ) ;
#255 = DIRECTION ( 'NONE',  ( 4.275831445896958607E-31, 1.000000000000000000, 1.224646799147352961E-16 ) ) ;
#256 = AXIS2_PLACEMENT_3D ( 'NONE', #178, #35, #142 ) ;
#257 = FACE_OUTER_BOUND ( 'NONE', #136, .T. ) ;
#258 = AXIS2_PLACEMENT_3D ( 'NONE', #103, #106, #283 ) ;
#259 = DIRECTION ( 'NONE',  ( 0.0000000000000000000, 1.000000000000000000, 0.0000000000000000000 ) ) ;
#260 = PERSON ( 'UNSPECIFIED', 'UNSPECIFIED', 'UNSPECIFIED', ('UNSPECIFIED'), ('UNSPECIFIED'), ('UNSPECIFIED') ) ;
#261 = DIRECTION ( 'NONE',  ( 0.0000000000000000000, 1.000000000000000000, 0.0000000000000000000 ) ) ;
#262 = LOCAL_TIME ( 14, 16, 22.00000000000000000, #111 ) ;
#263 = CALENDAR_DATE ( 2021, 16, 12 ) ;
#264 = DIRECTION ( 'NONE',  ( 1.000000000000000000, 0.0000000000000000000, 0.0000000000000000000 ) ) ;
#265 =( NAMED_UNIT ( * ) PLANE_ANGLE_UNIT ( ) SI_UNIT ( $, .RADIAN. ) );
#266 = CONICAL_SURFACE ( 'NONE', #50, 0.8000000000000002665, 0.7853981633974518317 ) ;
#267 = EDGE_LOOP ( 'NONE', ( #271 ) ) ;
#268 = DIRECTION ( 'NONE',  ( 3.491481338843133355E-15, -1.224646799147353207E-16, 1.000000000000000000 ) ) ;
#269 = LOCAL_TIME ( 14, 16, 22.00000000000000000, #198 ) ;
#270 = CIRCLE ( 'NONE', #153, 0.9999999999999970024 ) ;
#271 = ORIENTED_EDGE ( 'NONE', *, *, #77, .F. ) ;
#272 = SHAPE_DEFINITION_REPRESENTATION ( #209, #40 ) ;
#273 = EDGE_LOOP ( 'NONE', ( #119 ) ) ;
#274 = FACE_OUTER_BOUND ( 'NONE', #186, .T. ) ;
#275 = EDGE_LOOP ( 'NONE', ( #184 ) ) ;
#276 = CARTESIAN_POINT ( 'NONE',  ( -1.301286093451447126E-31, 4.564297197842983831E-33, -3.727031500854634491E-17 ) ) ;
#277 = CARTESIAN_POINT ( 'NONE',  ( 2.164718430082742680E-14, -7.592810154713589835E-16, 6.200000000000000178 ) ) ;
#278 = ORIENTED_EDGE ( 'NONE', *, *, #233, .T. ) ;
#279 = FACE_OUTER_BOUND ( 'NONE', #101, .T. ) ;
#280 = ADVANCED_FACE ( 'NONE', ( #152, #13 ), #221, .F. ) ;
#281 = CIRCLE ( 'NONE', #182, 0.4149999999999999245 ) ;
#282 = VERTEX_POINT ( 'NONE', #38 ) ;
#283 = DIRECTION ( 'NONE',  ( 4.275831445896959482E-31, 1.000000000000000000, 1.224646799147353207E-16 ) ) ;
ENDSEC;
END-ISO-10303-21;
