ISO-10303-21;
HEADER;
FILE_DESCRIPTION (( 'STEP AP203' ),
    '1' );
FILE_NAME ('969501.step',
    '2021-12-16T13:16:22',
    ( '' ),
    ( '' ),
    'SwSTEP 2.0',
    'SolidWorks 2019',
    '' );
FILE_SCHEMA (( 'CONFIG_CONTROL_DESIGN' ));
ENDSEC;

DATA;
#1 = EDGE_LOOP ( 'NONE', ( #18 ) ) ;
#2 = CIRCLE ( 'NONE', #35, 0.8000000000000002665 ) ;
#3 = COORDINATED_UNIVERSAL_TIME_OFFSET ( 1, 0, .AHEAD. ) ;
#4 = DIRECTION ( 'NONE',  ( -3.491481338843133355E-15, 1.224646799147353207E-16, -1.000000000000000000 ) ) ;
#5 = FACE_OUTER_BOUND ( 'NONE', #50, .T. ) ;
#6 = DIRECTION ( 'NONE',  ( -3.491481338843133355E-15, 1.224646799147353207E-16, -1.000000000000000000 ) ) ;
#7 = DIRECTION ( 'NONE',  ( -3.491481338843133355E-15, 1.224646799147353207E-16, -1.000000000000000000 ) ) ;
#8 = DIRECTION ( 'NONE',  ( 4.275831445896959482E-31, 1.000000000000000000, 1.224646799147353454E-16 ) ) ;
#9 = DIRECTION ( 'NONE',  ( -3.491481338843133355E-15, 1.224646799147353207E-16, -1.000000000000000000 ) ) ;
#10 = LOCAL_TIME ( 14, 16, 22.00000000000000000, #161 ) ;
#11 = DIRECTION ( 'NONE',  ( -3.491481338843133355E-15, 1.224646799147353207E-16, -1.000000000000000000 ) ) ;
#12 = PLANE ( 'NONE',  #240 ) ;
#13 = PERSON_AND_ORGANIZATION ( #263, #31 ) ;
#14 = ORIENTED_EDGE ( 'NONE', *, *, #249, .T. ) ;
#15 = CIRCLE ( 'NONE', #77, 0.5350370868554646941 ) ;
#16 = CIRCLE ( 'NONE', #266, 0.5179999999999994609 ) ;
#17 = PERSON_AND_ORGANIZATION ( #263, #31 ) ;
#18 = ORIENTED_EDGE ( 'NONE', *, *, #132, .T. ) ;
#19 = FACE_BOUND ( 'NONE', #67, .T. ) ;
#20 = CC_DESIGN_PERSON_AND_ORGANIZATION_ASSIGNMENT ( #13, #179, ( #257 ) ) ;
#21 = DIRECTION ( 'NONE',  ( -3.491481338843133355E-15, 1.224646799147353207E-16, -1.000000000000000000 ) ) ;
#22 = DIRECTION ( 'NONE',  ( 0.0000000000000000000, 1.000000000000000000, 0.0000000000000000000 ) ) ;
#23 = LOCAL_TIME ( 14, 16, 22.00000000000000000, #76 ) ;
#24 = FACE_OUTER_BOUND ( 'NONE', #203, .T. ) ;
#25 = FACE_BOUND ( 'NONE', #140, .T. ) ;
#26 = VERTEX_POINT ( 'NONE', #69 ) ;
#27 = EDGE_CURVE ( 'NONE', #153, #153, #239, .T. ) ;
#28 = VERTEX_POINT ( 'NONE', #115 ) ;
#29 = CYLINDRICAL_SURFACE ( 'NONE', #231, 0.9999999999999986677 ) ;
#30 = CARTESIAN_POINT ( 'NONE',  ( 2.466618001286990634E-14, -8.651731304960217778E-16, 7.064674738041932578 ) ) ;
#31 = ORGANIZATION ( 'UNSPECIFIED', 'UNSPECIFIED', '' ) ;
#32 = CARTESIAN_POINT ( 'NONE',  ( 1.396592535537253342E-14, 0.5179999999999993499, 4.000000000000000000 ) ) ;
#33 = DATE_TIME_ROLE ( 'creation_date' ) ;
#34 = APPROVAL_ROLE ( '' ) ;
#35 = AXIS2_PLACEMENT_3D ( 'NONE', #65, #264, #212 ) ;
#36 = PERSON_AND_ORGANIZATION ( #263, #31 ) ;
#37 = EDGE_LOOP ( 'NONE', ( #130 ) ) ;
#38 = COORDINATED_UNIVERSAL_TIME_OFFSET ( 1, 0, .AHEAD. ) ;
#39 = CALENDAR_DATE ( 2021, 16, 12 ) ;
#40 = EDGE_LOOP ( 'NONE', ( #233 ) ) ;
#41 = CC_DESIGN_PERSON_AND_ORGANIZATION_ASSIGNMENT ( #256, #157, ( #47 ) ) ;
#42 = ORIENTED_EDGE ( 'NONE', *, *, #192, .F. ) ;
#43 = CALENDAR_DATE ( 2021, 16, 12 ) ;
#44 = PLANE ( 'NONE',  #274 ) ;
#45 = CALENDAR_DATE ( 2021, 16, 12 ) ;
#46 = DIRECTION ( 'NONE',  ( -3.491481338843133355E-15, 1.224646799147353207E-16, -1.000000000000000000 ) ) ;
#47 = SECURITY_CLASSIFICATION ( '', '', #116 ) ;
#48 = PLANE ( 'NONE',  #258 ) ;
#49 = AXIS2_PLACEMENT_3D ( 'NONE', #175, #131, #194 ) ;
#50 = EDGE_LOOP ( 'NONE', ( #270 ) ) ;
#51 = EDGE_LOOP ( 'NONE', ( #42 ) ) ;
#52 = FACE_BOUND ( 'NONE', #80, .T. ) ;
#53 = DIRECTION ( 'NONE',  ( 7.436022951302076705E-31, 1.000000000000000000, 2.093054387037655536E-16 ) ) ;
#54 = APPROVAL ( #159, 'UNSPECIFIED' ) ;
#55 = FACE_OUTER_BOUND ( 'NONE', #262, .T. ) ;
#56 = ADVANCED_BREP_SHAPE_REPRESENTATION ( '969501', ( #136, #138, #204 ), #100 ) ;
#57 = APPLICATION_PROTOCOL_DEFINITION ( 'international standard', 'config_control_design', 1994, #64 ) ;
#58 =( NAMED_UNIT ( * ) SI_UNIT ( $, .STERADIAN. ) SOLID_ANGLE_UNIT ( ) );
#59 = ORIENTED_EDGE ( 'NONE', *, *, #187, .T. ) ;
#60 = PERSON_AND_ORGANIZATION ( #263, #31 ) ;
#61 = EDGE_LOOP ( 'NONE', ( #201 ) ) ;
#62 = ADVANCED_FACE ( 'NONE', ( #24, #25 ), #123, .T. ) ;
#63 = FACE_OUTER_BOUND ( 'NONE', #150, .T. ) ;
#64 = APPLICATION_CONTEXT ( 'configuration controlled 3d designs of mechanical parts and assemblies' ) ;
#65 = CARTESIAN_POINT ( 'NONE',  ( 1.117274028429802674E-13, -3.918869757271530263E-15, 32.00000000000000000 ) ) ;
#66 = ORIENTED_EDGE ( 'NONE', *, *, #82, .F. ) ;
#67 = EDGE_LOOP ( 'NONE', ( #87 ) ) ;
#68 = CC_DESIGN_PERSON_AND_ORGANIZATION_ASSIGNMENT ( #36, #119, ( #216 ) ) ;
#69 = CARTESIAN_POINT ( 'NONE',  ( -2.138211768073756517E-47, 0.3149999999999999467, 0.0000000000000000000 ) ) ;
#70 = CIRCLE ( 'NONE', #184, 1.000000000000000444 ) ;
#71 = DIRECTION ( 'NONE',  ( 0.0000000000000000000, -1.000000000000000000, 0.0000000000000000000 ) ) ;
#72 = CC_DESIGN_PERSON_AND_ORGANIZATION_ASSIGNMENT ( #17, #280, ( #277 ) ) ;
#73 =( NAMED_UNIT ( * ) PLANE_ANGLE_UNIT ( ) SI_UNIT ( $, .RADIAN. ) );
#74 = FACE_OUTER_BOUND ( 'NONE', #75, .T. ) ;
#75 = EDGE_LOOP ( 'NONE', ( #14 ) ) ;
#76 = COORDINATED_UNIVERSAL_TIME_OFFSET ( 1, 0, .AHEAD. ) ;
#77 = AXIS2_PLACEMENT_3D ( 'NONE', #125, #6, #268 ) ;
#78 = ADVANCED_FACE ( 'NONE', ( #236 ), #106, .F. ) ;
#79 = PERSON_AND_ORGANIZATION ( #263, #31 ) ;
#80 = EDGE_LOOP ( 'NONE', ( #122 ) ) ;
#81 = CARTESIAN_POINT ( 'NONE',  ( -1.346886905457542031E-31, 4.724243315384851054E-33, -3.857637417314162689E-17 ) ) ;
#82 = EDGE_CURVE ( 'NONE', #109, #109, #197, .T. ) ;
#83 = DIRECTION ( 'NONE',  ( 3.491481338843133355E-15, -1.224646799147353207E-16, 1.000000000000000000 ) ) ;
#84 = APPROVAL_PERSON_ORGANIZATION ( #60, #208, #34 ) ;
#85 = DIRECTION ( 'NONE',  ( 3.491481338843133355E-15, -1.224646799147353207E-16, 1.000000000000000000 ) ) ;
#86 = UNCERTAINTY_MEASURE_WITH_UNIT (LENGTH_MEASURE( 1.000000000000000082E-05 ), #111, 'distance_accuracy_value', 'NONE');
#87 = ORIENTED_EDGE ( 'NONE', *, *, #132, .F. ) ;
#88 = CARTESIAN_POINT ( 'NONE',  ( 1.396592535537253342E-14, -4.898587196589412829E-16, 4.000000000000000000 ) ) ;
#89 = AXIS2_PLACEMENT_3D ( 'NONE', #151, #9, #245 ) ;
#90 = DIRECTION ( 'NONE',  ( 3.491481338843133355E-15, -1.224646799147353207E-16, 1.000000000000000000 ) ) ;
#91 = CARTESIAN_POINT ( 'NONE',  ( 2.466618001286990634E-14, 0.9999999999999961142, 7.064674738041932578 ) ) ;
#92 = FACE_OUTER_BOUND ( 'NONE', #185, .T. ) ;
#93 = VERTEX_POINT ( 'NONE', #91 ) ;
#94 = VERTEX_POINT ( 'NONE', #32 ) ;
#95 = CIRCLE ( 'NONE', #199, 0.3149999999999999467 ) ;
#96 = DATE_AND_TIME ( #39, #23 ) ;
#97 = CALENDAR_DATE ( 2021, 16, 12 ) ;
#98 = APPLICATION_PROTOCOL_DEFINITION ( 'international standard', 'config_control_design', 1994, #103 ) ;
#99 = DIRECTION ( 'NONE',  ( 0.0000000000000000000, 0.0000000000000000000, 1.000000000000000000 ) ) ;
#100 =( GEOMETRIC_REPRESENTATION_CONTEXT ( 3 ) GLOBAL_UNCERTAINTY_ASSIGNED_CONTEXT ( ( #86 ) ) GLOBAL_UNIT_ASSIGNED_CONTEXT ( ( #111, #73, #58 ) ) REPRESENTATION_CONTEXT ( 'NONE', 'WORKASPACE' ) );
#101 = FACE_OUTER_BOUND ( 'NONE', #206, .T. ) ;
#102 = DIRECTION ( 'NONE',  ( -3.491481338843133355E-15, 1.224646799147353207E-16, -1.000000000000000000 ) ) ;
#103 = APPLICATION_CONTEXT ( 'configuration controlled 3d designs of mechanical parts and assemblies' ) ;
#104 = APPROVAL_ROLE ( '' ) ;
#105 = DESIGN_CONTEXT ( 'detailed design', #103, 'design' ) ;
#106 = PLANE ( 'NONE',  #211 ) ;
#107 = CARTESIAN_POINT ( 'NONE',  ( 1.815570296198429345E-14, -6.368163355566236381E-16, 5.200000000000000178 ) ) ;
#108 = FACE_OUTER_BOUND ( 'NONE', #51, .T. ) ;
#109 = VERTEX_POINT ( 'NONE', #112 ) ;
#110 = EDGE_CURVE ( 'NONE', #28, #28, #15, .T. ) ;
#111 =( LENGTH_UNIT ( ) NAMED_UNIT ( * ) SI_UNIT ( .MILLI., .METRE. ) );
#112 = CARTESIAN_POINT ( 'NONE',  ( 1.815570296198429345E-14, 0.5179999999999993499, 5.200000000000000178 ) ) ;
#113 = APPROVAL_PERSON_ORGANIZATION ( #209, #246, #104 ) ;
#114 = AXIS2_PLACEMENT_3D ( 'NONE', #129, #188, #22 ) ;
#115 = CARTESIAN_POINT ( 'NONE',  ( 1.860753389504060636E-14, 0.5350370868554640280, 5.329409522551256551 ) ) ;
#116 = SECURITY_CLASSIFICATION_LEVEL ( 'unclassified' ) ;
#117 = ADVANCED_FACE ( 'NONE', ( #190 ), #48, .T. ) ;
#118 = APPROVAL_PERSON_ORGANIZATION ( #79, #54, #121 ) ;
#119 = PERSON_AND_ORGANIZATION_ROLE ( 'design_owner' ) ;
#120 = ORIENTED_EDGE ( 'NONE', *, *, #171, .T. ) ;
#121 = APPROVAL_ROLE ( '' ) ;
#122 = ORIENTED_EDGE ( 'NONE', *, *, #110, .F. ) ;
#123 = CONICAL_SURFACE ( 'NONE', #114, 0.8000000000000002665, 0.7853981633974518317 ) ;
#124 = ADVANCED_FACE ( 'NONE', ( #210, #242 ), #234, .F. ) ;
#125 = CARTESIAN_POINT ( 'NONE',  ( 1.860753389504060636E-14, -6.526644313137820962E-16, 5.329409522551256551 ) ) ;
#126 = ORIENTED_EDGE ( 'NONE', *, *, #192, .T. ) ;
#127 = ADVANCED_FACE ( 'NONE', ( #19, #101 ), #265, .T. ) ;
#128 = CIRCLE ( 'NONE', #49, 0.9999999999999970024 ) ;
#129 = CARTESIAN_POINT ( 'NONE',  ( 1.117274028429802674E-13, -3.918869757271530263E-15, 32.00000000000000000 ) ) ;
#130 = ORIENTED_EDGE ( 'NONE', *, *, #187, .F. ) ;
#131 = DIRECTION ( 'NONE',  ( -3.491481338843133355E-15, 1.224646799147353207E-16, -1.000000000000000000 ) ) ;
#132 = EDGE_CURVE ( 'NONE', #26, #26, #95, .T. ) ;
#133 = CARTESIAN_POINT ( 'NONE',  ( 2.645168307299022160E-15, 0.5179999999999993499, 0.7576063139364999088 ) ) ;
#134 = DIRECTION ( 'NONE',  ( -3.491481338843133355E-15, 1.224646799147353207E-16, -1.000000000000000000 ) ) ;
#135 = DIRECTION ( 'NONE',  ( 0.0000000000000000000, 1.000000000000000000, 0.0000000000000000000 ) ) ;
#136 = MANIFOLD_SOLID_BREP ( 'Corps-Déplacer/Copier1[1]', #180 ) ;
#137 = CARTESIAN_POINT ( 'NONE',  ( 1.110291065752116407E-13, 0.9999999999999965583, 31.80000000000000071 ) ) ;
#138 = MANIFOLD_SOLID_BREP ( 'Corps-Déplacer/Copier1[2]', #251 ) ;
#139 = DATE_AND_TIME ( #97, #10 ) ;
#140 = EDGE_LOOP ( 'NONE', ( #168 ) ) ;
#141 = EDGE_CURVE ( 'NONE', #196, #196, #2, .T. ) ;
#142 = ORIENTED_EDGE ( 'NONE', *, *, #82, .T. ) ;
#143 = DIRECTION ( 'NONE',  ( -3.491481338843133355E-15, 1.224646799147353207E-16, -1.000000000000000000 ) ) ;
#144 = DATE_AND_TIME ( #43, #195 ) ;
#145 = CARTESIAN_POINT ( 'NONE',  ( 0.0000000000000000000, 0.0000000000000000000, 0.0000000000000000000 ) ) ;
#146 = DIRECTION ( 'NONE',  ( 4.275831445896958607E-31, 1.000000000000000000, 1.224646799147353207E-16 ) ) ;
#147 = CC_DESIGN_APPROVAL ( #246, ( #47 ) ) ;
#148 = AXIS2_PLACEMENT_3D ( 'NONE', #107, #237, #170 ) ;
#149 = CYLINDRICAL_SURFACE ( 'NONE', #260, 0.5179999999999996829 ) ;
#150 = EDGE_LOOP ( 'NONE', ( #228 ) ) ;
#151 = CARTESIAN_POINT ( 'NONE',  ( 1.396592535537253342E-14, -4.898587196589412829E-16, 4.000000000000000000 ) ) ;
#152 = DIRECTION ( 'NONE',  ( 3.491481338843133355E-15, -1.224646799147353207E-16, 1.000000000000000000 ) ) ;
#153 = VERTEX_POINT ( 'NONE', #248 ) ;
#154 = DIRECTION ( 'NONE',  ( -3.491481338843133355E-15, 1.224646799147353207E-16, -1.000000000000000000 ) ) ;
#155 = ORIENTED_EDGE ( 'NONE', *, *, #141, .F. ) ;
#156 = ADVANCED_FACE ( 'NONE', ( #5, #63 ), #149, .T. ) ;
#157 = PERSON_AND_ORGANIZATION_ROLE ( 'classification_officer' ) ;
#158 = EDGE_LOOP ( 'NONE', ( #155 ) ) ;
#159 = APPROVAL_STATUS ( 'not_yet_approved' ) ;
#160 = CC_DESIGN_APPROVAL ( #54, ( #257 ) ) ;
#161 = COORDINATED_UNIVERSAL_TIME_OFFSET ( 1, 0, .AHEAD. ) ;
#162 = ADVANCED_FACE ( 'NONE', ( #235 ), #44, .F. ) ;
#163 = DATE_AND_TIME ( #181, #281 ) ;
#164 = DIRECTION ( 'NONE',  ( 4.275831445896958607E-31, 1.000000000000000000, 1.224646799147353454E-16 ) ) ;
#165 = AXIS2_PLACEMENT_3D ( 'NONE', #186, #85, #282 ) ;
#166 = DATE_TIME_ROLE ( 'classification_date' ) ;
#167 = CARTESIAN_POINT ( 'NONE',  ( 1.815570296198429345E-14, -6.505213034913026604E-16, 5.200000000000000178 ) ) ;
#168 = ORIENTED_EDGE ( 'NONE', *, *, #141, .T. ) ;
#169 = EDGE_LOOP ( 'NONE', ( #142 ) ) ;
#170 = DIRECTION ( 'NONE',  ( 0.0000000000000000000, 1.000000000000000000, 0.0000000000000000000 ) ) ;
#171 = EDGE_CURVE ( 'NONE', #177, #177, #16, .T. ) ;
#172 = FACE_OUTER_BOUND ( 'NONE', #37, .T. ) ;
#173 = VERTEX_POINT ( 'NONE', #137 ) ;
#174 = PRODUCT_DEFINITION_SHAPE ( 'NONE', 'NONE',  #277 ) ;
#175 = CARTESIAN_POINT ( 'NONE',  ( 2.466618001286990634E-14, -8.651731304960217778E-16, 7.064674738041932578 ) ) ;
#176 = ADVANCED_FACE ( 'NONE', ( #92 ), #12, .F. ) ;
#177 = VERTEX_POINT ( 'NONE', #133 ) ;
#178 = APPROVAL_DATE_TIME ( #252, #246 ) ;
#179 = PERSON_AND_ORGANIZATION_ROLE ( 'creator' ) ;
#180 = CLOSED_SHELL ( 'NONE', ( #176, #207, #124, #232, #219, #62, #78 ) ) ;
#181 = CALENDAR_DATE ( 2021, 16, 12 ) ;
#182 = CARTESIAN_POINT ( 'NONE',  ( 0.0000000000000000000, 0.0000000000000000000, 0.0000000000000000000 ) ) ;
#183 = CONICAL_SURFACE ( 'NONE', #224, 0.9999999999999970024, 0.2617993877991428020 ) ;
#184 = AXIS2_PLACEMENT_3D ( 'NONE', #214, #134, #135 ) ;
#185 = EDGE_LOOP ( 'NONE', ( #59 ) ) ;
#186 = CARTESIAN_POINT ( 'NONE',  ( 2.645168307299021765E-15, -9.278001473761592480E-17, 0.7576063139364997978 ) ) ;
#187 = EDGE_CURVE ( 'NONE', #94, #94, #200, .T. ) ;
#188 = DIRECTION ( 'NONE',  ( -3.491481338843133355E-15, 1.224646799147353207E-16, -1.000000000000000000 ) ) ;
#189 = AXIS2_PLACEMENT_3D ( 'NONE', #221, #7, #243 ) ;
#190 = FACE_OUTER_BOUND ( 'NONE', #61, .T. ) ;
#191 = DIRECTION ( 'NONE',  ( -4.275831445896958607E-31, -1.000000000000000000, -1.224646799147353207E-16 ) ) ;
#192 = EDGE_CURVE ( 'NONE', #93, #93, #128, .T. ) ;
#193 = FACE_OUTER_BOUND ( 'NONE', #169, .T. ) ;
#194 = DIRECTION ( 'NONE',  ( 0.0000000000000000000, 1.000000000000000000, 0.0000000000000000000 ) ) ;
#195 = LOCAL_TIME ( 14, 16, 22.00000000000000000, #38 ) ;
#196 = VERTEX_POINT ( 'NONE', #220 ) ;
#197 = CIRCLE ( 'NONE', #148, 0.5180000000000000160 ) ;
#198 = COORDINATED_UNIVERSAL_TIME_OFFSET ( 1, 0, .AHEAD. ) ;
#199 = AXIS2_PLACEMENT_3D ( 'NONE', #81, #21, #164 ) ;
#200 = CIRCLE ( 'NONE', #89, 0.5179999999999999050 ) ;
#201 = ORIENTED_EDGE ( 'NONE', *, *, #27, .F. ) ;
#202 = CC_DESIGN_DATE_AND_TIME_ASSIGNMENT ( #144, #166, ( #47 ) ) ;
#203 = EDGE_LOOP ( 'NONE', ( #255 ) ) ;
#204 = AXIS2_PLACEMENT_3D ( 'NONE', #182, #99, #227 ) ;
#205 = DIRECTION ( 'NONE',  ( 4.275831445896958607E-31, 1.000000000000000000, 1.224646799147353207E-16 ) ) ;
#206 = EDGE_LOOP ( 'NONE', ( #120 ) ) ;
#207 = ADVANCED_FACE ( 'NONE', ( #172, #193 ), #275, .T. ) ;
#208 = APPROVAL ( #261, 'UNSPECIFIED' ) ;
#209 = PERSON_AND_ORGANIZATION ( #263, #31 ) ;
#210 = FACE_OUTER_BOUND ( 'NONE', #253, .T. ) ;
#211 = AXIS2_PLACEMENT_3D ( 'NONE', #267, #46, #146 ) ;
#212 = DIRECTION ( 'NONE',  ( 0.0000000000000000000, 1.000000000000000000, 0.0000000000000000000 ) ) ;
#213 = DIRECTION ( 'NONE',  ( 0.0000000000000000000, 1.000000000000000000, 0.0000000000000000000 ) ) ;
#214 = CARTESIAN_POINT ( 'NONE',  ( 1.110291065752116407E-13, -3.894376821288583549E-15, 31.80000000000000071 ) ) ;
#215 = PRODUCT_RELATED_PRODUCT_CATEGORY ( 'detail', '', ( #216 ) ) ;
#216 = PRODUCT ( '969501', '969501', '', ( #229 ) ) ;
#217 = AXIS2_PLACEMENT_3D ( 'NONE', #167, #4, #205 ) ;
#218 = CARTESIAN_POINT ( 'NONE',  ( 1.396592535537253342E-14, 3.884377837094203021E-33, 4.000000000000000000 ) ) ;
#219 = ADVANCED_FACE ( 'NONE', ( #108, #74 ), #29, .T. ) ;
#220 = CARTESIAN_POINT ( 'NONE',  ( 1.117274028429802674E-13, 0.7999999999999963807, 32.00000000000000000 ) ) ;
#221 = CARTESIAN_POINT ( 'NONE',  ( 0.0000000000000000000, 0.0000000000000000000, 0.0000000000000000000 ) ) ;
#222 = CC_DESIGN_SECURITY_CLASSIFICATION ( #47, ( #257 ) ) ;
#223 = DIRECTION ( 'NONE',  ( 3.491481338843133355E-15, -1.224646799147353207E-16, 1.000000000000000000 ) ) ;
#224 = AXIS2_PLACEMENT_3D ( 'NONE', #30, #223, #71 ) ;
#225 = APPROVAL_DATE_TIME ( #139, #54 ) ;
#226 = SHAPE_DEFINITION_REPRESENTATION ( #174, #56 ) ;
#227 = DIRECTION ( 'NONE',  ( 1.000000000000000000, 0.0000000000000000000, 0.0000000000000000000 ) ) ;
#228 = ORIENTED_EDGE ( 'NONE', *, *, #27, .T. ) ;
#229 = MECHANICAL_CONTEXT ( 'NONE', #64, 'mechanical' ) ;
#230 = AXIS2_PLACEMENT_3D ( 'NONE', #88, #102, #213 ) ;
#231 = AXIS2_PLACEMENT_3D ( 'NONE', #273, #154, #8 ) ;
#232 = ADVANCED_FACE ( 'NONE', ( #52, #55 ), #183, .T. ) ;
#233 = ORIENTED_EDGE ( 'NONE', *, *, #110, .T. ) ;
#234 = TOROIDAL_SURFACE ( 'NONE', #217, 1.018000000000000016, 0.5000000000000002220 ) ;
#235 = FACE_OUTER_BOUND ( 'NONE', #1, .T. ) ;
#236 = FACE_OUTER_BOUND ( 'NONE', #158, .T. ) ;
#237 = DIRECTION ( 'NONE',  ( -3.491481338843133355E-15, 1.224646799147353207E-16, -1.000000000000000000 ) ) ;
#238 = LOCAL_TIME ( 14, 16, 22.00000000000000000, #3 ) ;
#239 = CIRCLE ( 'NONE', #230, 0.5179999999999999050 ) ;
#240 = AXIS2_PLACEMENT_3D ( 'NONE', #218, #90, #250 ) ;
#241 = DIRECTION ( 'NONE',  ( 4.275831445896958607E-31, 1.000000000000000000, 1.224646799147353207E-16 ) ) ;
#242 = FACE_OUTER_BOUND ( 'NONE', #40, .T. ) ;
#243 = DIRECTION ( 'NONE',  ( 4.275831445896958607E-31, 1.000000000000000000, 1.224646799147352961E-16 ) ) ;
#244 = CC_DESIGN_APPROVAL ( #208, ( #277 ) ) ;
#245 = DIRECTION ( 'NONE',  ( 0.0000000000000000000, 1.000000000000000000, 0.0000000000000000000 ) ) ;
#246 = APPROVAL ( #269, 'UNSPECIFIED' ) ;
#247 = CARTESIAN_POINT ( 'NONE',  ( -6.734434527287710156E-32, 2.362121657692425527E-33, -1.928818708657081344E-17 ) ) ;
#248 = CARTESIAN_POINT ( 'NONE',  ( 1.396592535537253342E-14, 0.5179999999999993499, 4.000000000000000000 ) ) ;
#249 = EDGE_CURVE ( 'NONE', #173, #173, #70, .T. ) ;
#250 = DIRECTION ( 'NONE',  ( -4.275831445896958607E-31, -1.000000000000000000, -1.224646799147353207E-16 ) ) ;
#251 = CLOSED_SHELL ( 'NONE', ( #162, #127, #156, #117 ) ) ;
#252 = DATE_AND_TIME ( #45, #238 ) ;
#253 = EDGE_LOOP ( 'NONE', ( #66 ) ) ;
#254 = APPROVAL_DATE_TIME ( #96, #208 ) ;
#255 = ORIENTED_EDGE ( 'NONE', *, *, #249, .F. ) ;
#256 = PERSON_AND_ORGANIZATION ( #263, #31 ) ;
#257 = PRODUCT_DEFINITION_FORMATION_WITH_SPECIFIED_SOURCE ( 'ANY', '', #216, .NOT_KNOWN. ) ;
#258 = AXIS2_PLACEMENT_3D ( 'NONE', #271, #83, #191 ) ;
#259 = CC_DESIGN_DATE_AND_TIME_ASSIGNMENT ( #163, #33, ( #277 ) ) ;
#260 = AXIS2_PLACEMENT_3D ( 'NONE', #145, #143, #241 ) ;
#261 = APPROVAL_STATUS ( 'not_yet_approved' ) ;
#262 = EDGE_LOOP ( 'NONE', ( #126 ) ) ;
#263 = PERSON ( 'UNSPECIFIED', 'UNSPECIFIED', 'UNSPECIFIED', ('UNSPECIFIED'), ('UNSPECIFIED'), ('UNSPECIFIED') ) ;
#264 = DIRECTION ( 'NONE',  ( -3.491481338843133355E-15, 1.224646799147353207E-16, -1.000000000000000000 ) ) ;
#265 = CONICAL_SURFACE ( 'NONE', #165, 0.5179999999999994609, 0.2617993877991429685 ) ;
#266 = AXIS2_PLACEMENT_3D ( 'NONE', #272, #11, #53 ) ;
#267 = CARTESIAN_POINT ( 'NONE',  ( 1.117274028429802674E-13, 5.999039130647374325E-33, 32.00000000000000000 ) ) ;
#268 = DIRECTION ( 'NONE',  ( 0.0000000000000000000, 1.000000000000000000, 0.0000000000000000000 ) ) ;
#269 = APPROVAL_STATUS ( 'not_yet_approved' ) ;
#270 = ORIENTED_EDGE ( 'NONE', *, *, #171, .F. ) ;
#271 = CARTESIAN_POINT ( 'NONE',  ( 1.396592535537253342E-14, 3.884377837094203021E-33, 4.000000000000000000 ) ) ;
#272 = CARTESIAN_POINT ( 'NONE',  ( 2.645168307299021765E-15, -9.278001473761592480E-17, 0.7576063139364997978 ) ) ;
#273 = CARTESIAN_POINT ( 'NONE',  ( 0.0000000000000000000, 0.0000000000000000000, 0.0000000000000000000 ) ) ;
#274 = AXIS2_PLACEMENT_3D ( 'NONE', #247, #152, #276 ) ;
#275 = CYLINDRICAL_SURFACE ( 'NONE', #189, 0.5180000000000000160 ) ;
#276 = DIRECTION ( 'NONE',  ( -4.275831445896958607E-31, -1.000000000000000000, -1.224646799147353207E-16 ) ) ;
#277 = PRODUCT_DEFINITION ( 'UNKNOWN', '', #257, #105 ) ;
#278 = PERSON_AND_ORGANIZATION_ROLE ( 'design_supplier' ) ;
#279 = PERSON_AND_ORGANIZATION ( #263, #31 ) ;
#280 = PERSON_AND_ORGANIZATION_ROLE ( 'creator' ) ;
#281 = LOCAL_TIME ( 14, 16, 22.00000000000000000, #198 ) ;
#282 = DIRECTION ( 'NONE',  ( -7.436022951302076705E-31, -1.000000000000000000, -2.093054387037655536E-16 ) ) ;
#283 = CC_DESIGN_PERSON_AND_ORGANIZATION_ASSIGNMENT ( #279, #278, ( #257 ) ) ;
ENDSEC;
END-ISO-10303-21;
