ISO-10303-21;
HEADER;
FILE_DESCRIPTION (( 'STEP AP203' ),
    '1' );
FILE_NAME ('969500.step',
    '2021-12-16T13:16:21',
    ( '' ),
    ( '' ),
    'SwSTEP 2.0',
    'SolidWorks 2019',
    '' );
FILE_SCHEMA (( 'CONFIG_CONTROL_DESIGN' ));
ENDSEC;

DATA;
#1 = SECURITY_CLASSIFICATION ( '', '', #152 ) ;
#2 = CARTESIAN_POINT ( 'NONE',  ( 1.860753389504060636E-14, 0.4830370868554646480, 5.329409522551256551 ) ) ;
#3 = DESIGN_CONTEXT ( 'detailed design', #145, 'design' ) ;
#4 = MANIFOLD_SOLID_BREP ( 'Corps-Déplacer/Copier1[2]', #103 ) ;
#5 = COORDINATED_UNIVERSAL_TIME_OFFSET ( 1, 0, .AHEAD. ) ;
#6 = CARTESIAN_POINT ( 'NONE',  ( -6.093059810403166540E-32, 2.137157690293146954E-33, -1.745121688784978154E-17 ) ) ;
#7 = FACE_BOUND ( 'NONE', #207, .T. ) ;
#8 = CARTESIAN_POINT ( 'NONE',  ( 2.534376007188246415E-14, -8.889394396898939532E-16, 7.258741380035517388 ) ) ;
#9 = AXIS2_PLACEMENT_3D ( 'NONE', #229, #37, #99 ) ;
#10 = ORIENTED_EDGE ( 'NONE', *, *, #168, .F. ) ;
#11 = CARTESIAN_POINT ( 'NONE',  ( 1.117274028429802674E-13, -3.918869757271530263E-15, 32.00000000000000000 ) ) ;
#12 = COORDINATED_UNIVERSAL_TIME_OFFSET ( 1, 0, .AHEAD. ) ;
#13 = DIRECTION ( 'NONE',  ( -3.491481338843133355E-15, 1.224646799147353207E-16, -1.000000000000000000 ) ) ;
#14 = DIRECTION ( 'NONE',  ( -3.491481338843133355E-15, 1.224646799147353207E-16, -1.000000000000000000 ) ) ;
#15 = PLANE ( 'NONE',  #170 ) ;
#16 = EDGE_CURVE ( 'NONE', #63, #63, #251, .T. ) ;
#17 = CIRCLE ( 'NONE', #173, 0.4659999999999999143 ) ;
#18 = AXIS2_PLACEMENT_3D ( 'NONE', #247, #14, #185 ) ;
#19 = ORIENTED_EDGE ( 'NONE', *, *, #16, .T. ) ;
#20 = EDGE_CURVE ( 'NONE', #143, #143, #199, .T. ) ;
#21 = APPROVAL_DATE_TIME ( #132, #201 ) ;
#22 = EDGE_LOOP ( 'NONE', ( #283 ) ) ;
#23 = PERSON_AND_ORGANIZATION_ROLE ( 'creator' ) ;
#24 = ORIENTED_EDGE ( 'NONE', *, *, #57, .F. ) ;
#25 = ADVANCED_FACE ( 'NONE', ( #232, #39 ), #211, .T. ) ;
#26 = TOROIDAL_SURFACE ( 'NONE', #263, 0.9660000000000000808, 0.4999999999999998890 ) ;
#27 = EDGE_CURVE ( 'NONE', #158, #158, #237, .T. ) ;
#28 = PERSON ( 'UNSPECIFIED', 'UNSPECIFIED', 'UNSPECIFIED', ('UNSPECIFIED'), ('UNSPECIFIED'), ('UNSPECIFIED') ) ;
#29 = PERSON_AND_ORGANIZATION_ROLE ( 'classification_officer' ) ;
#30 =( NAMED_UNIT ( * ) PLANE_ANGLE_UNIT ( ) SI_UNIT ( $, .RADIAN. ) );
#31 = EDGE_CURVE ( 'NONE', #181, #181, #17, .T. ) ;
#32 = DIRECTION ( 'NONE',  ( 4.275831445896958607E-31, 1.000000000000000000, 1.224646799147353207E-16 ) ) ;
#33 = CARTESIAN_POINT ( 'NONE',  ( 1.396592535537253342E-14, 3.494440293602119660E-33, 4.000000000000000000 ) ) ;
#34 = MECHANICAL_CONTEXT ( 'NONE', #238, 'mechanical' ) ;
#35 = ORIENTED_EDGE ( 'NONE', *, *, #31, .T. ) ;
#36 = CC_DESIGN_SECURITY_CLASSIFICATION ( #1, ( #62 ) ) ;
#37 = DIRECTION ( 'NONE',  ( -3.491481338843133355E-15, 1.224646799147353207E-16, -1.000000000000000000 ) ) ;
#38 = PERSON_AND_ORGANIZATION ( #28, #83 ) ;
#39 = FACE_OUTER_BOUND ( 'NONE', #144, .T. ) ;
#40 = CC_DESIGN_PERSON_AND_ORGANIZATION_ASSIGNMENT ( #86, #68, ( #62 ) ) ;
#41 = DIRECTION ( 'NONE',  ( 4.275831445896957731E-31, 1.000000000000000000, 1.224646799147353207E-16 ) ) ;
#42 = DIRECTION ( 'NONE',  ( 3.491481338843133355E-15, -1.224646799147353207E-16, 1.000000000000000000 ) ) ;
#43 = APPROVAL_STATUS ( 'not_yet_approved' ) ;
#44 = ADVANCED_FACE ( 'NONE', ( #186, #140 ), #206, .T. ) ;
#45 = PERSON_AND_ORGANIZATION ( #28, #83 ) ;
#46 = ORIENTED_EDGE ( 'NONE', *, *, #31, .F. ) ;
#47 = CARTESIAN_POINT ( 'NONE',  ( 0.0000000000000000000, 0.2849999999999999756, 0.0000000000000000000 ) ) ;
#48 = ADVANCED_FACE ( 'NONE', ( #98 ), #15, .T. ) ;
#49 = ORIENTED_EDGE ( 'NONE', *, *, #16, .F. ) ;
#50 = CARTESIAN_POINT ( 'NONE',  ( 1.117274028429802674E-13, 0.7999999999999963807, 32.00000000000000000 ) ) ;
#51 = LOCAL_TIME ( 14, 16, 21.00000000000000000, #12 ) ;
#52 = AXIS2_PLACEMENT_3D ( 'NONE', #256, #67, #272 ) ;
#53 = EDGE_LOOP ( 'NONE', ( #10 ) ) ;
#54 = CARTESIAN_POINT ( 'NONE',  ( 1.117274028429802674E-13, 5.999039130647374325E-33, 32.00000000000000000 ) ) ;
#55 = APPROVAL_DATE_TIME ( #230, #151 ) ;
#56 = FACE_OUTER_BOUND ( 'NONE', #22, .T. ) ;
#57 = EDGE_CURVE ( 'NONE', #271, #271, #244, .T. ) ;
#58 = ORIENTED_EDGE ( 'NONE', *, *, #20, .T. ) ;
#59 = EDGE_LOOP ( 'NONE', ( #221 ) ) ;
#60 = CARTESIAN_POINT ( 'NONE',  ( 1.860753389504060636E-14, -6.526644313137820962E-16, 5.329409522551256551 ) ) ;
#61 = CARTESIAN_POINT ( 'NONE',  ( 1.815570296198429345E-14, -6.368163355566236381E-16, 5.200000000000000178 ) ) ;
#62 = PRODUCT_DEFINITION_FORMATION_WITH_SPECIFIED_SOURCE ( 'ANY', '', #107, .NOT_KNOWN. ) ;
#63 = VERTEX_POINT ( 'NONE', #179 ) ;
#64 = DIRECTION ( 'NONE',  ( -4.275831445896958607E-31, -1.000000000000000000, -1.224646799147353207E-16 ) ) ;
#65 = ORIENTED_EDGE ( 'NONE', *, *, #20, .F. ) ;
#66 = COORDINATED_UNIVERSAL_TIME_OFFSET ( 1, 0, .AHEAD. ) ;
#67 = DIRECTION ( 'NONE',  ( -3.491481338843133355E-15, 1.224646799147353207E-16, -1.000000000000000000 ) ) ;
#68 = PERSON_AND_ORGANIZATION_ROLE ( 'design_supplier' ) ;
#69 = PRODUCT_RELATED_PRODUCT_CATEGORY ( 'detail', '', ( #107 ) ) ;
#70 = CONICAL_SURFACE ( 'NONE', #205, 0.4659999999999995257, 0.2617993877991428575 ) ;
#71 = CC_DESIGN_DATE_AND_TIME_ASSIGNMENT ( #96, #273, ( #1 ) ) ;
#72 = DIRECTION ( 'NONE',  ( -3.491481338843133355E-15, 1.224646799147353207E-16, -1.000000000000000000 ) ) ;
#73 = AXIS2_PLACEMENT_3D ( 'NONE', #33, #118, #191 ) ;
#74 = DIRECTION ( 'NONE',  ( -3.491481338843133355E-15, 1.224646799147353207E-16, -1.000000000000000000 ) ) ;
#75 = EDGE_LOOP ( 'NONE', ( #49 ) ) ;
#76 = CARTESIAN_POINT ( 'NONE',  ( 1.815570296198429345E-14, -6.505213034913026604E-16, 5.200000000000000178 ) ) ;
#77 = DIRECTION ( 'NONE',  ( 0.0000000000000000000, 0.0000000000000000000, 1.000000000000000000 ) ) ;
#78 = FACE_BOUND ( 'NONE', #89, .T. ) ;
#79 = PERSON_AND_ORGANIZATION ( #28, #83 ) ;
#80 = FACE_OUTER_BOUND ( 'NONE', #218, .T. ) ;
#81 = APPROVAL ( #171, 'UNSPECIFIED' ) ;
#82 = FACE_OUTER_BOUND ( 'NONE', #236, .T. ) ;
#83 = ORGANIZATION ( 'UNSPECIFIED', 'UNSPECIFIED', '' ) ;
#84 = AXIS2_PLACEMENT_3D ( 'NONE', #8, #246, #248 ) ;
#85 = ORIENTED_EDGE ( 'NONE', *, *, #168, .T. ) ;
#86 = PERSON_AND_ORGANIZATION ( #28, #83 ) ;
#87 = CC_DESIGN_PERSON_AND_ORGANIZATION_ASSIGNMENT ( #38, #281, ( #107 ) ) ;
#88 = CARTESIAN_POINT ( 'NONE',  ( 2.534376007188246415E-14, 0.9999999999999961142, 7.258741380035517388 ) ) ;
#89 = EDGE_LOOP ( 'NONE', ( #204 ) ) ;
#90 =( GEOMETRIC_REPRESENTATION_CONTEXT ( 3 ) GLOBAL_UNCERTAINTY_ASSIGNED_CONTEXT ( ( #110 ) ) GLOBAL_UNIT_ASSIGNED_CONTEXT ( ( #182, #30, #268 ) ) REPRESENTATION_CONTEXT ( 'NONE', 'WORKASPACE' ) );
#91 = EDGE_LOOP ( 'NONE', ( #172 ) ) ;
#92 = LOCAL_TIME ( 14, 16, 21.00000000000000000, #150 ) ;
#93 = VERTEX_POINT ( 'NONE', #2 ) ;
#94 = SHAPE_DEFINITION_REPRESENTATION ( #184, #113 ) ;
#95 = FACE_OUTER_BOUND ( 'NONE', #202, .T. ) ;
#96 = DATE_AND_TIME ( #115, #51 ) ;
#97 = DIRECTION ( 'NONE',  ( 0.0000000000000000000, 1.000000000000000000, 0.0000000000000000000 ) ) ;
#98 = FACE_OUTER_BOUND ( 'NONE', #254, .T. ) ;
#99 = DIRECTION ( 'NONE',  ( 4.275831445896959482E-31, 1.000000000000000000, 1.224646799147353207E-16 ) ) ;
#100 = CARTESIAN_POINT ( 'NONE',  ( 1.396592535537253342E-14, 3.494440293602119660E-33, 4.000000000000000000 ) ) ;
#101 = CYLINDRICAL_SURFACE ( 'NONE', #259, 0.9999999999999986677 ) ;
#102 = FACE_OUTER_BOUND ( 'NONE', #197, .T. ) ;
#103 = CLOSED_SHELL ( 'NONE', ( #278, #146, #25, #48 ) ) ;
#104 = PLANE ( 'NONE',  #73 ) ;
#105 = EDGE_LOOP ( 'NONE', ( #35 ) ) ;
#106 = AXIS2_PLACEMENT_3D ( 'NONE', #178, #77, #231 ) ;
#107 = PRODUCT ( '969500', '969500', '', ( #34 ) ) ;
#108 = CC_DESIGN_PERSON_AND_ORGANIZATION_ASSIGNMENT ( #79, #164, ( #119 ) ) ;
#109 = VERTEX_POINT ( 'NONE', #47 ) ;
#110 = UNCERTAINTY_MEASURE_WITH_UNIT (LENGTH_MEASURE( 1.000000000000000082E-05 ), #182, 'distance_accuracy_value', 'NONE');
#111 = CIRCLE ( 'NONE', #9, 0.2849999999999999756 ) ;
#112 = APPROVAL_ROLE ( '' ) ;
#113 = ADVANCED_BREP_SHAPE_REPRESENTATION ( '969500', ( #195, #4, #106 ), #90 ) ;
#114 = DIRECTION ( 'NONE',  ( 0.0000000000000000000, 1.000000000000000000, 0.0000000000000000000 ) ) ;
#115 = CALENDAR_DATE ( 2021, 16, 12 ) ;
#116 = DIRECTION ( 'NONE',  ( -4.275831445896958607E-31, -1.000000000000000000, -1.224646799147353207E-16 ) ) ;
#117 = APPLICATION_PROTOCOL_DEFINITION ( 'international standard', 'config_control_design', 1994, #238 ) ;
#118 = DIRECTION ( 'NONE',  ( 3.491481338843133355E-15, -1.224646799147353207E-16, 1.000000000000000000 ) ) ;
#119 = PRODUCT_DEFINITION ( 'UNKNOWN', '', #62, #3 ) ;
#120 = APPROVAL_STATUS ( 'not_yet_approved' ) ;
#121 = LOCAL_TIME ( 14, 16, 21.00000000000000000, #5 ) ;
#122 = EDGE_LOOP ( 'NONE', ( #223 ) ) ;
#123 = AXIS2_PLACEMENT_3D ( 'NONE', #188, #227, #162 ) ;
#124 = FACE_OUTER_BOUND ( 'NONE', #122, .T. ) ;
#125 = FACE_OUTER_BOUND ( 'NONE', #59, .T. ) ;
#126 = CARTESIAN_POINT ( 'NONE',  ( 1.396592535537253342E-14, 0.4659999999999994147, 4.000000000000000000 ) ) ;
#127 = DIRECTION ( 'NONE',  ( -3.491481338843133355E-15, 1.224646799147353207E-16, -1.000000000000000000 ) ) ;
#128 = DIRECTION ( 'NONE',  ( -8.265793752734925583E-31, -1.000000000000000000, -2.326614104046149038E-16 ) ) ;
#129 = CC_DESIGN_PERSON_AND_ORGANIZATION_ASSIGNMENT ( #240, #29, ( #1 ) ) ;
#130 = CC_DESIGN_APPROVAL ( #81, ( #119 ) ) ;
#131 = APPROVAL_ROLE ( '' ) ;
#132 = DATE_AND_TIME ( #134, #92 ) ;
#133 = EDGE_LOOP ( 'NONE', ( #46 ) ) ;
#134 = CALENDAR_DATE ( 2021, 16, 12 ) ;
#135 = ORIENTED_EDGE ( 'NONE', *, *, #228, .T. ) ;
#136 = AXIS2_PLACEMENT_3D ( 'NONE', #61, #142, #138 ) ;
#137 = DIRECTION ( 'NONE',  ( -3.491481338843133355E-15, 1.224646799147353207E-16, -1.000000000000000000 ) ) ;
#138 = DIRECTION ( 'NONE',  ( 0.0000000000000000000, 1.000000000000000000, 0.0000000000000000000 ) ) ;
#139 = ADVANCED_FACE ( 'NONE', ( #102, #125 ), #101, .T. ) ;
#140 = FACE_OUTER_BOUND ( 'NONE', #91, .T. ) ;
#141 = CARTESIAN_POINT ( 'NONE',  ( 1.117274028429802674E-13, -3.918869757271530263E-15, 32.00000000000000000 ) ) ;
#142 = DIRECTION ( 'NONE',  ( -3.491481338843133355E-15, 1.224646799147353207E-16, -1.000000000000000000 ) ) ;
#143 = VERTEX_POINT ( 'NONE', #233 ) ;
#144 = EDGE_LOOP ( 'NONE', ( #58 ) ) ;
#145 = APPLICATION_CONTEXT ( 'configuration controlled 3d designs of mechanical parts and assemblies' ) ;
#146 = ADVANCED_FACE ( 'NONE', ( #78, #80 ), #70, .T. ) ;
#147 = DIRECTION ( 'NONE',  ( 4.275831445896959482E-31, 1.000000000000000000, 1.224646799147353454E-16 ) ) ;
#148 = DATE_TIME_ROLE ( 'creation_date' ) ;
#149 = LOCAL_TIME ( 14, 16, 21.00000000000000000, #192 ) ;
#150 = COORDINATED_UNIVERSAL_TIME_OFFSET ( 1, 0, .AHEAD. ) ;
#151 = APPROVAL ( #120, 'UNSPECIFIED' ) ;
#152 = SECURITY_CLASSIFICATION_LEVEL ( 'unclassified' ) ;
#153 = EDGE_LOOP ( 'NONE', ( #219 ) ) ;
#154 = VERTEX_POINT ( 'NONE', #264 ) ;
#155 = ADVANCED_FACE ( 'NONE', ( #212 ), #104, .F. ) ;
#156 = CC_DESIGN_APPROVAL ( #151, ( #1 ) ) ;
#157 = DIRECTION ( 'NONE',  ( 0.0000000000000000000, 1.000000000000000000, 0.0000000000000000000 ) ) ;
#158 = VERTEX_POINT ( 'NONE', #203 ) ;
#159 = CARTESIAN_POINT ( 'NONE',  ( 1.396592535537253342E-14, -4.898587196589412829E-16, 4.000000000000000000 ) ) ;
#160 = DIRECTION ( 'NONE',  ( 8.265793752734925583E-31, 1.000000000000000000, 2.326614104046149038E-16 ) ) ;
#161 = DIRECTION ( 'NONE',  ( -3.491481338843133355E-15, 1.224646799147353207E-16, -1.000000000000000000 ) ) ;
#162 = DIRECTION ( 'NONE',  ( 0.0000000000000000000, 1.000000000000000000, 0.0000000000000000000 ) ) ;
#163 = ADVANCED_FACE ( 'NONE', ( #280, #82 ), #167, .T. ) ;
#164 = PERSON_AND_ORGANIZATION_ROLE ( 'creator' ) ;
#165 = CARTESIAN_POINT ( 'NONE',  ( 2.358499820793709242E-15, -8.272503777097776027E-17, 0.6755011961699827205 ) ) ;
#166 = APPROVAL_ROLE ( '' ) ;
#167 = CYLINDRICAL_SURFACE ( 'NONE', #52, 0.4659999999999999698 ) ;
#168 = EDGE_CURVE ( 'NONE', #93, #93, #282, .T. ) ;
#169 = CIRCLE ( 'NONE', #175, 0.8000000000000002665 ) ;
#170 = AXIS2_PLACEMENT_3D ( 'NONE', #100, #252, #64 ) ;
#171 = APPROVAL_STATUS ( 'not_yet_approved' ) ;
#172 = ORIENTED_EDGE ( 'NONE', *, *, #57, .T. ) ;
#173 = AXIS2_PLACEMENT_3D ( 'NONE', #159, #127, #274 ) ;
#174 = ADVANCED_FACE ( 'NONE', ( #224, #7 ), #193, .T. ) ;
#175 = AXIS2_PLACEMENT_3D ( 'NONE', #11, #187, #266 ) ;
#176 = VERTEX_POINT ( 'NONE', #50 ) ;
#177 = LOCAL_TIME ( 14, 16, 21.00000000000000000, #66 ) ;
#178 = CARTESIAN_POINT ( 'NONE',  ( 0.0000000000000000000, 0.0000000000000000000, 0.0000000000000000000 ) ) ;
#179 = CARTESIAN_POINT ( 'NONE',  ( 2.358499820793709637E-15, 0.4659999999999994147, 0.6755011961699828316 ) ) ;
#180 = PERSON_AND_ORGANIZATION ( #28, #83 ) ;
#181 = VERTEX_POINT ( 'NONE', #126 ) ;
#182 =( LENGTH_UNIT ( ) NAMED_UNIT ( * ) SI_UNIT ( .MILLI., .METRE. ) );
#183 = CARTESIAN_POINT ( 'NONE',  ( 1.396592535537253342E-14, -4.898587196589412829E-16, 4.000000000000000000 ) ) ;
#184 = PRODUCT_DEFINITION_SHAPE ( 'NONE', 'NONE',  #119 ) ;
#185 = DIRECTION ( 'NONE',  ( 0.0000000000000000000, 1.000000000000000000, 0.0000000000000000000 ) ) ;
#186 = FACE_BOUND ( 'NONE', #53, .T. ) ;
#187 = DIRECTION ( 'NONE',  ( -3.491481338843133355E-15, 1.224646799147353207E-16, -1.000000000000000000 ) ) ;
#188 = CARTESIAN_POINT ( 'NONE',  ( 2.534376007188246415E-14, -8.889394396898939532E-16, 7.258741380035517388 ) ) ;
#189 = EDGE_CURVE ( 'NONE', #109, #109, #111, .T. ) ;
#190 = AXIS2_PLACEMENT_3D ( 'NONE', #209, #72, #160 ) ;
#191 = DIRECTION ( 'NONE',  ( -4.275831445896958607E-31, -1.000000000000000000, -1.224646799147353207E-16 ) ) ;
#192 = COORDINATED_UNIVERSAL_TIME_OFFSET ( 1, 0, .AHEAD. ) ;
#193 = CONICAL_SURFACE ( 'NONE', #243, 0.8000000000000002665, 0.7853981633974518317 ) ;
#194 = ORIENTED_EDGE ( 'NONE', *, *, #220, .F. ) ;
#195 = MANIFOLD_SOLID_BREP ( 'Corps-Déplacer/Copier1[1]', #241 ) ;
#196 = PERSON_AND_ORGANIZATION ( #28, #83 ) ;
#197 = EDGE_LOOP ( 'NONE', ( #24 ) ) ;
#198 = ADVANCED_FACE ( 'NONE', ( #124 ), #249, .F. ) ;
#199 = CIRCLE ( 'NONE', #262, 0.4659999999999999143 ) ;
#200 = CIRCLE ( 'NONE', #18, 1.000000000000000444 ) ;
#201 = APPROVAL ( #43, 'UNSPECIFIED' ) ;
#202 = EDGE_LOOP ( 'NONE', ( #85 ) ) ;
#203 = CARTESIAN_POINT ( 'NONE',  ( 1.815570296198429345E-14, 0.4659999999999994147, 5.200000000000000178 ) ) ;
#204 = ORIENTED_EDGE ( 'NONE', *, *, #189, .F. ) ;
#205 = AXIS2_PLACEMENT_3D ( 'NONE', #165, #42, #128 ) ;
#206 = CONICAL_SURFACE ( 'NONE', #84, 0.9999999999999970024, 0.2617993877991426910 ) ;
#207 = EDGE_LOOP ( 'NONE', ( #135 ) ) ;
#208 = AXIS2_PLACEMENT_3D ( 'NONE', #60, #161, #114 ) ;
#209 = CARTESIAN_POINT ( 'NONE',  ( 2.358499820793709242E-15, -8.272503777097776027E-17, 0.6755011961699827205 ) ) ;
#210 = DIRECTION ( 'NONE',  ( -3.491481338843133355E-15, 1.224646799147353207E-16, -1.000000000000000000 ) ) ;
#211 = CYLINDRICAL_SURFACE ( 'NONE', #258, 0.4659999999999997478 ) ;
#212 = FACE_OUTER_BOUND ( 'NONE', #105, .T. ) ;
#213 = AXIS2_PLACEMENT_3D ( 'NONE', #6, #275, #116 ) ;
#214 = CC_DESIGN_DATE_AND_TIME_ASSIGNMENT ( #235, #148, ( #119 ) ) ;
#215 = EDGE_LOOP ( 'NONE', ( #194 ) ) ;
#216 = PERSON_AND_ORGANIZATION ( #28, #83 ) ;
#217 = APPROVAL_PERSON_ORGANIZATION ( #45, #201, #131 ) ;
#218 = EDGE_LOOP ( 'NONE', ( #19 ) ) ;
#219 = ORIENTED_EDGE ( 'NONE', *, *, #27, .F. ) ;
#220 = EDGE_CURVE ( 'NONE', #154, #154, #200, .T. ) ;
#221 = ORIENTED_EDGE ( 'NONE', *, *, #220, .T. ) ;
#222 = PLANE ( 'NONE',  #213 ) ;
#223 = ORIENTED_EDGE ( 'NONE', *, *, #228, .F. ) ;
#224 = FACE_OUTER_BOUND ( 'NONE', #215, .T. ) ;
#225 = CARTESIAN_POINT ( 'NONE',  ( 0.0000000000000000000, 0.0000000000000000000, 0.0000000000000000000 ) ) ;
#226 = FACE_OUTER_BOUND ( 'NONE', #153, .T. ) ;
#227 = DIRECTION ( 'NONE',  ( -3.491481338843133355E-15, 1.224646799147353207E-16, -1.000000000000000000 ) ) ;
#228 = EDGE_CURVE ( 'NONE', #176, #176, #169, .T. ) ;
#229 = CARTESIAN_POINT ( 'NONE',  ( -1.218611962080633308E-31, 4.274315380586293909E-33, -3.490243377569956308E-17 ) ) ;
#230 = DATE_AND_TIME ( #267, #121 ) ;
#231 = DIRECTION ( 'NONE',  ( 1.000000000000000000, 0.0000000000000000000, 0.0000000000000000000 ) ) ;
#232 = FACE_OUTER_BOUND ( 'NONE', #75, .T. ) ;
#233 = CARTESIAN_POINT ( 'NONE',  ( 1.396592535537253342E-14, 0.4659999999999994147, 4.000000000000000000 ) ) ;
#234 = DIRECTION ( 'NONE',  ( -3.491481338843133355E-15, 1.224646799147353207E-16, -1.000000000000000000 ) ) ;
#235 = DATE_AND_TIME ( #253, #177 ) ;
#236 = EDGE_LOOP ( 'NONE', ( #261 ) ) ;
#237 = CIRCLE ( 'NONE', #136, 0.4660000000000000253 ) ;
#238 = APPLICATION_CONTEXT ( 'configuration controlled 3d designs of mechanical parts and assemblies' ) ;
#239 = ADVANCED_FACE ( 'NONE', ( #226, #95 ), #26, .F. ) ;
#240 = PERSON_AND_ORGANIZATION ( #28, #83 ) ;
#241 = CLOSED_SHELL ( 'NONE', ( #155, #163, #239, #44, #139, #174, #198 ) ) ;
#242 = CC_DESIGN_PERSON_AND_ORGANIZATION_ASSIGNMENT ( #216, #23, ( #62 ) ) ;
#243 = AXIS2_PLACEMENT_3D ( 'NONE', #141, #210, #97 ) ;
#244 = CIRCLE ( 'NONE', #123, 0.9999999999999970024 ) ;
#245 = AXIS2_PLACEMENT_3D ( 'NONE', #54, #137, #32 ) ;
#246 = DIRECTION ( 'NONE',  ( 3.491481338843133355E-15, -1.224646799147353207E-16, 1.000000000000000000 ) ) ;
#247 = CARTESIAN_POINT ( 'NONE',  ( 1.110291065752116407E-13, -3.894376821288583549E-15, 31.80000000000000071 ) ) ;
#248 = DIRECTION ( 'NONE',  ( 0.0000000000000000000, -1.000000000000000000, 0.0000000000000000000 ) ) ;
#249 = PLANE ( 'NONE',  #245 ) ;
#250 = DIRECTION ( 'NONE',  ( 4.275831445896958607E-31, 1.000000000000000000, 1.224646799147353207E-16 ) ) ;
#251 = CIRCLE ( 'NONE', #190, 0.4659999999999995257 ) ;
#252 = DIRECTION ( 'NONE',  ( 3.491481338843133355E-15, -1.224646799147353207E-16, 1.000000000000000000 ) ) ;
#253 = CALENDAR_DATE ( 2021, 16, 12 ) ;
#254 = EDGE_LOOP ( 'NONE', ( #65 ) ) ;
#255 = APPROVAL_DATE_TIME ( #260, #81 ) ;
#256 = CARTESIAN_POINT ( 'NONE',  ( 0.0000000000000000000, 0.0000000000000000000, 0.0000000000000000000 ) ) ;
#257 = CC_DESIGN_APPROVAL ( #201, ( #62 ) ) ;
#258 = AXIS2_PLACEMENT_3D ( 'NONE', #269, #234, #41 ) ;
#259 = AXIS2_PLACEMENT_3D ( 'NONE', #225, #276, #147 ) ;
#260 = DATE_AND_TIME ( #279, #149 ) ;
#261 = ORIENTED_EDGE ( 'NONE', *, *, #27, .T. ) ;
#262 = AXIS2_PLACEMENT_3D ( 'NONE', #183, #13, #157 ) ;
#263 = AXIS2_PLACEMENT_3D ( 'NONE', #76, #74, #250 ) ;
#264 = CARTESIAN_POINT ( 'NONE',  ( 1.110291065752116407E-13, 0.9999999999999965583, 31.80000000000000071 ) ) ;
#265 = APPROVAL_PERSON_ORGANIZATION ( #180, #151, #112 ) ;
#266 = DIRECTION ( 'NONE',  ( 0.0000000000000000000, 1.000000000000000000, 0.0000000000000000000 ) ) ;
#267 = CALENDAR_DATE ( 2021, 16, 12 ) ;
#268 =( NAMED_UNIT ( * ) SI_UNIT ( $, .STERADIAN. ) SOLID_ANGLE_UNIT ( ) );
#269 = CARTESIAN_POINT ( 'NONE',  ( 0.0000000000000000000, 0.0000000000000000000, 0.0000000000000000000 ) ) ;
#270 = APPROVAL_PERSON_ORGANIZATION ( #196, #81, #166 ) ;
#271 = VERTEX_POINT ( 'NONE', #88 ) ;
#272 = DIRECTION ( 'NONE',  ( 4.275831445896957731E-31, 1.000000000000000000, 1.224646799147353207E-16 ) ) ;
#273 = DATE_TIME_ROLE ( 'classification_date' ) ;
#274 = DIRECTION ( 'NONE',  ( 0.0000000000000000000, 1.000000000000000000, 0.0000000000000000000 ) ) ;
#275 = DIRECTION ( 'NONE',  ( 3.491481338843133355E-15, -1.224646799147353207E-16, 1.000000000000000000 ) ) ;
#276 = DIRECTION ( 'NONE',  ( -3.491481338843133355E-15, 1.224646799147353207E-16, -1.000000000000000000 ) ) ;
#277 = APPLICATION_PROTOCOL_DEFINITION ( 'international standard', 'config_control_design', 1994, #145 ) ;
#278 = ADVANCED_FACE ( 'NONE', ( #56 ), #222, .F. ) ;
#279 = CALENDAR_DATE ( 2021, 16, 12 ) ;
#280 = FACE_OUTER_BOUND ( 'NONE', #133, .T. ) ;
#281 = PERSON_AND_ORGANIZATION_ROLE ( 'design_owner' ) ;
#282 = CIRCLE ( 'NONE', #208, 0.4830370868554652586 ) ;
#283 = ORIENTED_EDGE ( 'NONE', *, *, #189, .T. ) ;
ENDSEC;
END-ISO-10303-21;
