ISO-10303-21;
HEADER;
FILE_DESCRIPTION (( 'STEP AP203' ),
    '1' );
FILE_NAME ('969499.step',
    '2021-12-16T13:16:21',
    ( '' ),
    ( '' ),
    'SwSTEP 2.0',
    'SolidWorks 2019',
    '' );
FILE_SCHEMA (( 'CONFIG_CONTROL_DESIGN' ));
ENDSEC;

DATA;
#1 = AXIS2_PLACEMENT_3D ( 'NONE', #275, #74, #160 ) ;
#2 = CLOSED_SHELL ( 'NONE', ( #276, #108, #141, #75, #29, #130, #61 ) ) ;
#3 = PLANE ( 'NONE',  #85 ) ;
#4 = APPROVAL_DATE_TIME ( #266, #144 ) ;
#5 = CARTESIAN_POINT ( 'NONE',  ( -4.731839565957903391E-32, 0.2550000000000000044, -1.355252715606880543E-17 ) ) ;
#6 = DIRECTION ( 'NONE',  ( -3.491481338843133355E-15, 1.224646799147353207E-16, -1.000000000000000000 ) ) ;
#7 = CONICAL_SURFACE ( 'NONE', #112, 0.8000000000000002665, 0.7853981633974518317 ) ;
#8 = EDGE_LOOP ( 'NONE', ( #248 ) ) ;
#9 = APPLICATION_CONTEXT ( 'configuration controlled 3d designs of mechanical parts and assemblies' ) ;
#10 = DIRECTION ( 'NONE',  ( 3.491481338843133355E-15, -1.224646799147353207E-16, 1.000000000000000000 ) ) ;
#11 = EDGE_LOOP ( 'NONE', ( #18 ) ) ;
#12 = DIRECTION ( 'NONE',  ( -3.491481338843133355E-15, 1.224646799147353207E-16, -1.000000000000000000 ) ) ;
#13 = DIRECTION ( 'NONE',  ( -3.491481338843133355E-15, 1.224646799147353207E-16, -1.000000000000000000 ) ) ;
#14 = DIRECTION ( 'NONE',  ( -3.491481338843133355E-15, 1.224646799147353207E-16, -1.000000000000000000 ) ) ;
#15 = EDGE_CURVE ( 'NONE', #271, #271, #67, .T. ) ;
#16 =( GEOMETRIC_REPRESENTATION_CONTEXT ( 3 ) GLOBAL_UNCERTAINTY_ASSIGNED_CONTEXT ( ( #132 ) ) GLOBAL_UNIT_ASSIGNED_CONTEXT ( ( #234, #35, #140 ) ) REPRESENTATION_CONTEXT ( 'NONE', 'WORKASPACE' ) );
#17 = CARTESIAN_POINT ( 'NONE',  ( -7.817604876497574346E-32, 2.742046672995730797E-33, -2.239051026716315543E-17 ) ) ;
#18 = ORIENTED_EDGE ( 'NONE', *, *, #217, .F. ) ;
#19 = ORIENTED_EDGE ( 'NONE', *, *, #45, .T. ) ;
#20 = AXIS2_PLACEMENT_3D ( 'NONE', #252, #13, #114 ) ;
#21 = PRODUCT_DEFINITION ( 'UNKNOWN', '', #246, #38 ) ;
#22 = CIRCLE ( 'NONE', #197, 0.8000000000000002665 ) ;
#23 = EDGE_LOOP ( 'NONE', ( #63 ) ) ;
#24 = APPROVAL_ROLE ( '' ) ;
#25 = CC_DESIGN_PERSON_AND_ORGANIZATION_ASSIGNMENT ( #59, #146, ( #66 ) ) ;
#26 = VERTEX_POINT ( 'NONE', #70 ) ;
#27 = PLANE ( 'NONE',  #192 ) ;
#28 = DIRECTION ( 'NONE',  ( -4.275831445896958607E-31, -1.000000000000000000, -1.224646799147353207E-16 ) ) ;
#29 = ADVANCED_FACE ( 'NONE', ( #50, #96 ), #190, .T. ) ;
#30 = EDGE_LOOP ( 'NONE', ( #116 ) ) ;
#31 = CYLINDRICAL_SURFACE ( 'NONE', #91, 0.4144999999999996465 ) ;
#32 = APPROVAL_PERSON_ORGANIZATION ( #239, #165, #193 ) ;
#33 = CC_DESIGN_PERSON_AND_ORGANIZATION_ASSIGNMENT ( #187, #58, ( #256 ) ) ;
#34 = VERTEX_POINT ( 'NONE', #280 ) ;
#35 =( NAMED_UNIT ( * ) PLANE_ANGLE_UNIT ( ) SI_UNIT ( $, .RADIAN. ) );
#36 = CALENDAR_DATE ( 2021, 16, 12 ) ;
#37 = COORDINATED_UNIVERSAL_TIME_OFFSET ( 1, 0, .AHEAD. ) ;
#38 = DESIGN_CONTEXT ( 'detailed design', #9, 'design' ) ;
#39 = PRODUCT_RELATED_PRODUCT_CATEGORY ( 'detail', '', ( #256 ) ) ;
#40 = CARTESIAN_POINT ( 'NONE',  ( 1.117274028429802674E-13, -3.918869757271530263E-15, 32.00000000000000000 ) ) ;
#41 = DIRECTION ( 'NONE',  ( 4.275831445896958607E-31, 1.000000000000000000, 1.224646799147353207E-16 ) ) ;
#42 = EDGE_LOOP ( 'NONE', ( #230 ) ) ;
#43 = CIRCLE ( 'NONE', #221, 0.4144999999999998685 ) ;
#44 = CARTESIAN_POINT ( 'NONE',  ( 1.396592535537253342E-14, 3.108252149566692065E-33, 4.000000000000000000 ) ) ;
#45 = EDGE_CURVE ( 'NONE', #26, #26, #47, .T. ) ;
#46 = CARTESIAN_POINT ( 'NONE',  ( 2.078346527163516679E-15, -7.289858300812678837E-17, 0.5952621038072497539 ) ) ;
#47 = CIRCLE ( 'NONE', #106, 0.4144999999999998685 ) ;
#48 = VERTEX_POINT ( 'NONE', #115 ) ;
#49 = EDGE_LOOP ( 'NONE', ( #88 ) ) ;
#50 = FACE_OUTER_BOUND ( 'NONE', #159, .T. ) ;
#51 = MANIFOLD_SOLID_BREP ( 'Corps-Déplacer/Copier1[2]', #220 ) ;
#52 = PERSON_AND_ORGANIZATION ( #241, #60 ) ;
#53 = DIRECTION ( 'NONE',  ( 4.275831445896959482E-31, 1.000000000000000000, 1.224646799147353207E-16 ) ) ;
#54 = CARTESIAN_POINT ( 'NONE',  ( 0.0000000000000000000, 0.0000000000000000000, 0.0000000000000000000 ) ) ;
#55 = AXIS2_PLACEMENT_3D ( 'NONE', #189, #149, #105 ) ;
#56 = PERSON_AND_ORGANIZATION_ROLE ( 'creator' ) ;
#57 = MANIFOLD_SOLID_BREP ( 'Corps-Déplacer/Copier1[1]', #2 ) ;
#58 = PERSON_AND_ORGANIZATION_ROLE ( 'design_owner' ) ;
#59 = PERSON_AND_ORGANIZATION ( #241, #60 ) ;
#60 = ORGANIZATION ( 'UNSPECIFIED', 'UNSPECIFIED', '' ) ;
#61 = ADVANCED_FACE ( 'NONE', ( #233 ), #92, .F. ) ;
#62 = ADVANCED_BREP_SHAPE_REPRESENTATION ( '969499', ( #57, #51, #186 ), #16 ) ;
#63 = ORIENTED_EDGE ( 'NONE', *, *, #86, .F. ) ;
#64 = ADVANCED_FACE ( 'NONE', ( #209 ), #27, .F. ) ;
#65 = EDGE_LOOP ( 'NONE', ( #104 ) ) ;
#66 = SECURITY_CLASSIFICATION ( '', '', #145 ) ;
#67 = CIRCLE ( 'NONE', #157, 0.2550000000000000044 ) ;
#68 = VERTEX_POINT ( 'NONE', #176 ) ;
#69 = ORIENTED_EDGE ( 'NONE', *, *, #15, .F. ) ;
#70 = CARTESIAN_POINT ( 'NONE',  ( 1.396592535537253342E-14, 0.4144999999999993689, 4.000000000000000000 ) ) ;
#71 = EDGE_LOOP ( 'NONE', ( #201 ) ) ;
#72 = PERSON_AND_ORGANIZATION_ROLE ( 'creator' ) ;
#73 = ORIENTED_EDGE ( 'NONE', *, *, #45, .F. ) ;
#74 = DIRECTION ( 'NONE',  ( -3.491481338843133355E-15, 1.224646799147353207E-16, -1.000000000000000000 ) ) ;
#75 = ADVANCED_FACE ( 'NONE', ( #269, #278 ), #208, .T. ) ;
#76 = COORDINATED_UNIVERSAL_TIME_OFFSET ( 1, 0, .AHEAD. ) ;
#77 = EDGE_LOOP ( 'NONE', ( #139 ) ) ;
#78 = FACE_OUTER_BOUND ( 'NONE', #81, .T. ) ;
#79 = CALENDAR_DATE ( 2021, 16, 12 ) ;
#80 = APPROVAL_ROLE ( '' ) ;
#81 = EDGE_LOOP ( 'NONE', ( #255 ) ) ;
#82 = CARTESIAN_POINT ( 'NONE',  ( 1.110291065752116407E-13, 0.9999999999999965583, 31.80000000000000071 ) ) ;
#83 = EDGE_CURVE ( 'NONE', #222, #222, #22, .T. ) ;
#84 = APPROVAL_STATUS ( 'not_yet_approved' ) ;
#85 = AXIS2_PLACEMENT_3D ( 'NONE', #44, #121, #251 ) ;
#86 = EDGE_CURVE ( 'NONE', #268, #268, #43, .T. ) ;
#87 = AXIS2_PLACEMENT_3D ( 'NONE', #133, #270, #181 ) ;
#88 = ORIENTED_EDGE ( 'NONE', *, *, #242, .T. ) ;
#89 = FACE_OUTER_BOUND ( 'NONE', #153, .T. ) ;
#90 = CARTESIAN_POINT ( 'NONE',  ( 1.396592535537253342E-14, 0.4144999999999993689, 4.000000000000000000 ) ) ;
#91 = AXIS2_PLACEMENT_3D ( 'NONE', #124, #14, #207 ) ;
#92 = PLANE ( 'NONE',  #1 ) ;
#93 = DIRECTION ( 'NONE',  ( 0.0000000000000000000, -1.000000000000000000, 0.0000000000000000000 ) ) ;
#94 = EDGE_LOOP ( 'NONE', ( #272 ) ) ;
#95 = DIRECTION ( 'NONE',  ( 3.491481338843133355E-15, -1.224646799147353207E-16, 1.000000000000000000 ) ) ;
#96 = FACE_OUTER_BOUND ( 'NONE', #49, .T. ) ;
#97 = MECHANICAL_CONTEXT ( 'NONE', #238, 'mechanical' ) ;
#98 = PRODUCT_DEFINITION_SHAPE ( 'NONE', 'NONE',  #21 ) ;
#99 = LOCAL_TIME ( 14, 16, 21.00000000000000000, #101 ) ;
#100 = EDGE_LOOP ( 'NONE', ( #175 ) ) ;
#101 = COORDINATED_UNIVERSAL_TIME_OFFSET ( 1, 0, .AHEAD. ) ;
#102 = EDGE_LOOP ( 'NONE', ( #73 ) ) ;
#103 = PERSON_AND_ORGANIZATION_ROLE ( 'design_supplier' ) ;
#104 = ORIENTED_EDGE ( 'NONE', *, *, #242, .F. ) ;
#105 = DIRECTION ( 'NONE',  ( 0.0000000000000000000, 1.000000000000000000, 0.0000000000000000000 ) ) ;
#106 = AXIS2_PLACEMENT_3D ( 'NONE', #240, #182, #126 ) ;
#107 = APPLICATION_PROTOCOL_DEFINITION ( 'international standard', 'config_control_design', 1994, #238 ) ;
#108 = ADVANCED_FACE ( 'NONE', ( #250, #184 ), #273, .T. ) ;
#109 = CC_DESIGN_DATE_AND_TIME_ASSIGNMENT ( #131, #215, ( #66 ) ) ;
#110 = CC_DESIGN_APPROVAL ( #165, ( #21 ) ) ;
#111 = ORIENTED_EDGE ( 'NONE', *, *, #194, .T. ) ;
#112 = AXIS2_PLACEMENT_3D ( 'NONE', #40, #216, #198 ) ;
#113 = PERSON_AND_ORGANIZATION ( #241, #60 ) ;
#114 = DIRECTION ( 'NONE',  ( 0.0000000000000000000, 1.000000000000000000, 0.0000000000000000000 ) ) ;
#115 = CARTESIAN_POINT ( 'NONE',  ( 2.584025087107774572E-14, 0.9999999999999961142, 7.400941996625319597 ) ) ;
#116 = ORIENTED_EDGE ( 'NONE', *, *, #217, .T. ) ;
#117 = DIRECTION ( 'NONE',  ( 0.0000000000000000000, 1.000000000000000000, 0.0000000000000000000 ) ) ;
#118 = CC_DESIGN_PERSON_AND_ORGANIZATION_ASSIGNMENT ( #277, #72, ( #21 ) ) ;
#119 = CIRCLE ( 'NONE', #167, 0.4145000000000000351 ) ;
#120 = CARTESIAN_POINT ( 'NONE',  ( 2.584025087107774572E-14, -9.063539926842421095E-16, 7.400941996625319597 ) ) ;
#121 = DIRECTION ( 'NONE',  ( 3.491481338843133355E-15, -1.224646799147353207E-16, 1.000000000000000000 ) ) ;
#122 = CARTESIAN_POINT ( 'NONE',  ( 1.396592535537253342E-14, -4.898587196589412829E-16, 4.000000000000000000 ) ) ;
#123 = DIRECTION ( 'NONE',  ( 0.0000000000000000000, 1.000000000000000000, 0.0000000000000000000 ) ) ;
#124 = CARTESIAN_POINT ( 'NONE',  ( 0.0000000000000000000, 0.0000000000000000000, 0.0000000000000000000 ) ) ;
#125 = APPLICATION_PROTOCOL_DEFINITION ( 'international standard', 'config_control_design', 1994, #9 ) ;
#126 = DIRECTION ( 'NONE',  ( 0.0000000000000000000, 1.000000000000000000, 0.0000000000000000000 ) ) ;
#127 = EDGE_CURVE ( 'NONE', #48, #48, #244, .T. ) ;
#128 = AXIS2_PLACEMENT_3D ( 'NONE', #120, #95, #228 ) ;
#129 = APPROVAL_DATE_TIME ( #188, #165 ) ;
#130 = ADVANCED_FACE ( 'NONE', ( #212, #191 ), #7, .T. ) ;
#131 = DATE_AND_TIME ( #36, #219 ) ;
#132 = UNCERTAINTY_MEASURE_WITH_UNIT (LENGTH_MEASURE( 1.000000000000000082E-05 ), #234, 'distance_accuracy_value', 'NONE');
#133 = CARTESIAN_POINT ( 'NONE',  ( 1.110291065752116407E-13, -3.894376821288583549E-15, 31.80000000000000071 ) ) ;
#134 = CONICAL_SURFACE ( 'NONE', #236, 0.4144999999999994245, 0.2617993877991427465 ) ;
#135 = ADVANCED_FACE ( 'NONE', ( #223, #218 ), #31, .T. ) ;
#136 = DIRECTION ( 'NONE',  ( 3.491481338843133355E-15, -1.224646799147353207E-16, 1.000000000000000000 ) ) ;
#137 = CIRCLE ( 'NONE', #148, 0.4144999999999994245 ) ;
#138 = FACE_BOUND ( 'NONE', #185, .T. ) ;
#139 = ORIENTED_EDGE ( 'NONE', *, *, #86, .T. ) ;
#140 =( NAMED_UNIT ( * ) SI_UNIT ( $, .STERADIAN. ) SOLID_ANGLE_UNIT ( ) );
#141 = ADVANCED_FACE ( 'NONE', ( #78, #258 ), #263, .F. ) ;
#142 = DIRECTION ( 'NONE',  ( 4.275831445896959482E-31, 1.000000000000000000, 1.224646799147353454E-16 ) ) ;
#143 = DIRECTION ( 'NONE',  ( 0.0000000000000000000, 0.0000000000000000000, 1.000000000000000000 ) ) ;
#144 = APPROVAL ( #84, 'UNSPECIFIED' ) ;
#145 = SECURITY_CLASSIFICATION_LEVEL ( 'unclassified' ) ;
#146 = PERSON_AND_ORGANIZATION_ROLE ( 'classification_officer' ) ;
#147 = CC_DESIGN_APPROVAL ( #144, ( #66 ) ) ;
#148 = AXIS2_PLACEMENT_3D ( 'NONE', #200, #178, #205 ) ;
#149 = DIRECTION ( 'NONE',  ( -3.491481338843133355E-15, 1.224646799147353207E-16, -1.000000000000000000 ) ) ;
#150 = SHAPE_DEFINITION_REPRESENTATION ( #98, #62 ) ;
#151 = CC_DESIGN_DATE_AND_TIME_ASSIGNMENT ( #254, #283, ( #21 ) ) ;
#152 = AXIS2_PLACEMENT_3D ( 'NONE', #261, #232, #142 ) ;
#153 = EDGE_LOOP ( 'NONE', ( #111 ) ) ;
#154 = VERTEX_POINT ( 'NONE', #247 ) ;
#155 = DIRECTION ( 'NONE',  ( 3.491481338843133355E-15, -1.224646799147353207E-16, 1.000000000000000000 ) ) ;
#156 = CARTESIAN_POINT ( 'NONE',  ( 1.117274028429802674E-13, 0.7999999999999963807, 32.00000000000000000 ) ) ;
#157 = AXIS2_PLACEMENT_3D ( 'NONE', #203, #169, #53 ) ;
#158 = ADVANCED_FACE ( 'NONE', ( #162 ), #3, .T. ) ;
#159 = EDGE_LOOP ( 'NONE', ( #279 ) ) ;
#160 = DIRECTION ( 'NONE',  ( 4.275831445896958607E-31, 1.000000000000000000, 1.224646799147353207E-16 ) ) ;
#161 = APPROVAL_STATUS ( 'not_yet_approved' ) ;
#162 = FACE_OUTER_BOUND ( 'NONE', #23, .T. ) ;
#163 = DIRECTION ( 'NONE',  ( -3.491481338843133355E-15, 1.224646799147353207E-16, -1.000000000000000000 ) ) ;
#164 = DATE_AND_TIME ( #211, #195 ) ;
#165 = APPROVAL ( #161, 'UNSPECIFIED' ) ;
#166 = LOCAL_TIME ( 14, 16, 21.00000000000000000, #37 ) ;
#167 = AXIS2_PLACEMENT_3D ( 'NONE', #265, #180, #123 ) ;
#168 = COORDINATED_UNIVERSAL_TIME_OFFSET ( 1, 0, .AHEAD. ) ;
#169 = DIRECTION ( 'NONE',  ( -3.491481338843133355E-15, 1.224646799147353207E-16, -1.000000000000000000 ) ) ;
#170 = APPROVAL_STATUS ( 'not_yet_approved' ) ;
#171 = CC_DESIGN_SECURITY_CLASSIFICATION ( #66, ( #246 ) ) ;
#172 = AXIS2_PLACEMENT_3D ( 'NONE', #224, #10, #28 ) ;
#173 = ADVANCED_FACE ( 'NONE', ( #138, #89 ), #134, .T. ) ;
#174 = APPROVAL_PERSON_ORGANIZATION ( #52, #249, #80 ) ;
#175 = ORIENTED_EDGE ( 'NONE', *, *, #194, .F. ) ;
#176 = CARTESIAN_POINT ( 'NONE',  ( 1.798112889504213678E-14, 0.4144999999999993689, 5.150000000000000355 ) ) ;
#177 = CALENDAR_DATE ( 2021, 16, 12 ) ;
#178 = DIRECTION ( 'NONE',  ( -3.491481338843133355E-15, 1.224646799147353207E-16, -1.000000000000000000 ) ) ;
#179 = DIRECTION ( 'NONE',  ( 4.275831445896958607E-31, 1.000000000000000000, 1.224646799147353207E-16 ) ) ;
#180 = DIRECTION ( 'NONE',  ( -3.491481338843133355E-15, 1.224646799147353207E-16, -1.000000000000000000 ) ) ;
#181 = DIRECTION ( 'NONE',  ( 0.0000000000000000000, 1.000000000000000000, 0.0000000000000000000 ) ) ;
#182 = DIRECTION ( 'NONE',  ( -3.491481338843133355E-15, 1.224646799147353207E-16, -1.000000000000000000 ) ) ;
#183 = EDGE_CURVE ( 'NONE', #68, #68, #119, .T. ) ;
#184 = FACE_OUTER_BOUND ( 'NONE', #94, .T. ) ;
#185 = EDGE_LOOP ( 'NONE', ( #69 ) ) ;
#186 = AXIS2_PLACEMENT_3D ( 'NONE', #213, #143, #231 ) ;
#187 = PERSON_AND_ORGANIZATION ( #241, #60 ) ;
#188 = DATE_AND_TIME ( #206, #99 ) ;
#189 = CARTESIAN_POINT ( 'NONE',  ( 2.584025087107774572E-14, -9.063539926842421095E-16, 7.400941996625319597 ) ) ;
#190 = CYLINDRICAL_SURFACE ( 'NONE', #152, 0.9999999999999986677 ) ;
#191 = FACE_BOUND ( 'NONE', #42, .T. ) ;
#192 = AXIS2_PLACEMENT_3D ( 'NONE', #17, #155, #204 ) ;
#193 = APPROVAL_ROLE ( '' ) ;
#194 = EDGE_CURVE ( 'NONE', #154, #154, #137, .T. ) ;
#195 = LOCAL_TIME ( 14, 16, 21.00000000000000000, #168 ) ;
#196 = CC_DESIGN_PERSON_AND_ORGANIZATION_ASSIGNMENT ( #262, #56, ( #246 ) ) ;
#197 = AXIS2_PLACEMENT_3D ( 'NONE', #202, #163, #117 ) ;
#198 = DIRECTION ( 'NONE',  ( 0.0000000000000000000, 1.000000000000000000, 0.0000000000000000000 ) ) ;
#199 = FACE_OUTER_BOUND ( 'NONE', #281, .T. ) ;
#200 = CARTESIAN_POINT ( 'NONE',  ( 2.078346527163516679E-15, -7.289858300812678837E-17, 0.5952621038072497539 ) ) ;
#201 = ORIENTED_EDGE ( 'NONE', *, *, #83, .F. ) ;
#202 = CARTESIAN_POINT ( 'NONE',  ( 1.117274028429802674E-13, -3.918869757271530263E-15, 32.00000000000000000 ) ) ;
#203 = CARTESIAN_POINT ( 'NONE',  ( -1.563520975299514869E-31, 5.484093345991461594E-33, -4.478102053432631085E-17 ) ) ;
#204 = DIRECTION ( 'NONE',  ( -4.275831445896958607E-31, -1.000000000000000000, -1.224646799147353207E-16 ) ) ;
#205 = DIRECTION ( 'NONE',  ( 0.0000000000000000000, 1.000000000000000000, 0.0000000000000000000 ) ) ;
#206 = CALENDAR_DATE ( 2021, 16, 12 ) ;
#207 = DIRECTION ( 'NONE',  ( 4.275831445896958607E-31, 1.000000000000000000, 1.224646799147353207E-16 ) ) ;
#208 = CONICAL_SURFACE ( 'NONE', #128, 0.9999999999999970024, 0.2617993877991426355 ) ;
#209 = FACE_OUTER_BOUND ( 'NONE', #8, .T. ) ;
#210 = CC_DESIGN_PERSON_AND_ORGANIZATION_ASSIGNMENT ( #237, #103, ( #246 ) ) ;
#211 = CALENDAR_DATE ( 2021, 16, 12 ) ;
#212 = FACE_OUTER_BOUND ( 'NONE', #65, .T. ) ;
#213 = CARTESIAN_POINT ( 'NONE',  ( 0.0000000000000000000, 0.0000000000000000000, 0.0000000000000000000 ) ) ;
#214 = CIRCLE ( 'NONE', #20, 0.4315370868554653794 ) ;
#215 = DATE_TIME_ROLE ( 'classification_date' ) ;
#216 = DIRECTION ( 'NONE',  ( -3.491481338843133355E-15, 1.224646799147353207E-16, -1.000000000000000000 ) ) ;
#217 = EDGE_CURVE ( 'NONE', #34, #34, #214, .T. ) ;
#218 = FACE_OUTER_BOUND ( 'NONE', #77, .T. ) ;
#219 = LOCAL_TIME ( 14, 16, 21.00000000000000000, #243 ) ;
#220 = CLOSED_SHELL ( 'NONE', ( #64, #173, #135, #158 ) ) ;
#221 = AXIS2_PLACEMENT_3D ( 'NONE', #122, #12, #259 ) ;
#222 = VERTEX_POINT ( 'NONE', #156 ) ;
#223 = FACE_OUTER_BOUND ( 'NONE', #100, .T. ) ;
#224 = CARTESIAN_POINT ( 'NONE',  ( 1.396592535537253342E-14, 3.108252149566692065E-33, 4.000000000000000000 ) ) ;
#225 = CARTESIAN_POINT ( 'NONE',  ( 1.798112889504213678E-14, -6.505213034913026604E-16, 5.150000000000000355 ) ) ;
#226 = EDGE_LOOP ( 'NONE', ( #253 ) ) ;
#227 = PLANE ( 'NONE',  #172 ) ;
#228 = DIRECTION ( 'NONE',  ( 0.0000000000000000000, -1.000000000000000000, 0.0000000000000000000 ) ) ;
#229 = DIRECTION ( 'NONE',  ( -3.491481338843133355E-15, 1.224646799147353207E-16, -1.000000000000000000 ) ) ;
#230 = ORIENTED_EDGE ( 'NONE', *, *, #83, .T. ) ;
#231 = DIRECTION ( 'NONE',  ( 1.000000000000000000, 0.0000000000000000000, 0.0000000000000000000 ) ) ;
#232 = DIRECTION ( 'NONE',  ( -3.491481338843133355E-15, 1.224646799147353207E-16, -1.000000000000000000 ) ) ;
#233 = FACE_OUTER_BOUND ( 'NONE', #71, .T. ) ;
#234 =( LENGTH_UNIT ( ) NAMED_UNIT ( * ) SI_UNIT ( .MILLI., .METRE. ) );
#235 = APPROVAL_PERSON_ORGANIZATION ( #113, #144, #24 ) ;
#236 = AXIS2_PLACEMENT_3D ( 'NONE', #46, #136, #93 ) ;
#237 = PERSON_AND_ORGANIZATION ( #241, #60 ) ;
#238 = APPLICATION_CONTEXT ( 'configuration controlled 3d designs of mechanical parts and assemblies' ) ;
#239 = PERSON_AND_ORGANIZATION ( #241, #60 ) ;
#240 = CARTESIAN_POINT ( 'NONE',  ( 1.396592535537253342E-14, -4.898587196589412829E-16, 4.000000000000000000 ) ) ;
#241 = PERSON ( 'UNSPECIFIED', 'UNSPECIFIED', 'UNSPECIFIED', ('UNSPECIFIED'), ('UNSPECIFIED'), ('UNSPECIFIED') ) ;
#242 = EDGE_CURVE ( 'NONE', #257, #257, #282, .T. ) ;
#243 = COORDINATED_UNIVERSAL_TIME_OFFSET ( 1, 0, .AHEAD. ) ;
#244 = CIRCLE ( 'NONE', #55, 0.9999999999999970024 ) ;
#245 = CC_DESIGN_APPROVAL ( #249, ( #246 ) ) ;
#246 = PRODUCT_DEFINITION_FORMATION_WITH_SPECIFIED_SOURCE ( 'ANY', '', #256, .NOT_KNOWN. ) ;
#247 = CARTESIAN_POINT ( 'NONE',  ( 2.078346527163516679E-15, 0.4144999999999993689, 0.5952621038072497539 ) ) ;
#248 = ORIENTED_EDGE ( 'NONE', *, *, #15, .T. ) ;
#249 = APPROVAL ( #170, 'UNSPECIFIED' ) ;
#250 = FACE_OUTER_BOUND ( 'NONE', #102, .T. ) ;
#251 = DIRECTION ( 'NONE',  ( -4.275831445896958607E-31, -1.000000000000000000, -1.224646799147353207E-16 ) ) ;
#252 = CARTESIAN_POINT ( 'NONE',  ( 1.843295982809844654E-14, -6.465411973180452204E-16, 5.279409522551255840 ) ) ;
#253 = ORIENTED_EDGE ( 'NONE', *, *, #127, .T. ) ;
#254 = DATE_AND_TIME ( #79, #267 ) ;
#255 = ORIENTED_EDGE ( 'NONE', *, *, #183, .F. ) ;
#256 = PRODUCT ( '969499', '969499', '', ( #97 ) ) ;
#257 = VERTEX_POINT ( 'NONE', #82 ) ;
#258 = FACE_OUTER_BOUND ( 'NONE', #30, .T. ) ;
#259 = DIRECTION ( 'NONE',  ( 0.0000000000000000000, 1.000000000000000000, 0.0000000000000000000 ) ) ;
#260 = APPROVAL_DATE_TIME ( #164, #249 ) ;
#261 = CARTESIAN_POINT ( 'NONE',  ( 0.0000000000000000000, 0.0000000000000000000, 0.0000000000000000000 ) ) ;
#262 = PERSON_AND_ORGANIZATION ( #241, #60 ) ;
#263 = TOROIDAL_SURFACE ( 'NONE', #274, 0.9145000000000000906, 0.4999999999999997780 ) ;
#264 = AXIS2_PLACEMENT_3D ( 'NONE', #54, #6, #179 ) ;
#265 = CARTESIAN_POINT ( 'NONE',  ( 1.798112889504213678E-14, -6.306931015608868610E-16, 5.150000000000000355 ) ) ;
#266 = DATE_AND_TIME ( #177, #166 ) ;
#267 = LOCAL_TIME ( 14, 16, 21.00000000000000000, #76 ) ;
#268 = VERTEX_POINT ( 'NONE', #90 ) ;
#269 = FACE_BOUND ( 'NONE', #11, .T. ) ;
#270 = DIRECTION ( 'NONE',  ( -3.491481338843133355E-15, 1.224646799147353207E-16, -1.000000000000000000 ) ) ;
#271 = VERTEX_POINT ( 'NONE', #5 ) ;
#272 = ORIENTED_EDGE ( 'NONE', *, *, #183, .T. ) ;
#273 = CYLINDRICAL_SURFACE ( 'NONE', #264, 0.4144999999999999241 ) ;
#274 = AXIS2_PLACEMENT_3D ( 'NONE', #225, #229, #41 ) ;
#275 = CARTESIAN_POINT ( 'NONE',  ( 1.117274028429802674E-13, 5.999039130647374325E-33, 32.00000000000000000 ) ) ;
#276 = ADVANCED_FACE ( 'NONE', ( #199 ), #227, .F. ) ;
#277 = PERSON_AND_ORGANIZATION ( #241, #60 ) ;
#278 = FACE_OUTER_BOUND ( 'NONE', #226, .T. ) ;
#279 = ORIENTED_EDGE ( 'NONE', *, *, #127, .F. ) ;
#280 = CARTESIAN_POINT ( 'NONE',  ( 1.843295982809844654E-14, 0.4315370868554647132, 5.279409522551255840 ) ) ;
#281 = EDGE_LOOP ( 'NONE', ( #19 ) ) ;
#282 = CIRCLE ( 'NONE', #87, 1.000000000000000444 ) ;
#283 = DATE_TIME_ROLE ( 'creation_date' ) ;
ENDSEC;
END-ISO-10303-21;
