ISO-10303-21;
HEADER;
FILE_DESCRIPTION (( 'STEP AP203' ),
    '1' );
FILE_NAME ('969498.step',
    '2021-12-16T13:16:20',
    ( '' ),
    ( '' ),
    'SwSTEP 2.0',
    'SolidWorks 2019',
    '' );
FILE_SCHEMA (( 'CONFIG_CONTROL_DESIGN' ));
ENDSEC;

DATA;
#1 = CIRCLE ( 'NONE', #16, 0.3625000000000000444 ) ;
#2 = PERSON_AND_ORGANIZATION ( #119, #242 ) ;
#3 = CC_DESIGN_PERSON_AND_ORGANIZATION_ASSIGNMENT ( #238, #236, ( #136 ) ) ;
#4 = DIRECTION ( 'NONE',  ( 1.000000000000000000, 0.0000000000000000000, 0.0000000000000000000 ) ) ;
#5 = AXIS2_PLACEMENT_3D ( 'NONE', #101, #85, #35 ) ;
#6 =( LENGTH_UNIT ( ) NAMED_UNIT ( * ) SI_UNIT ( .MILLI., .METRE. ) );
#7 = DIRECTION ( 'NONE',  ( -3.491481338843133355E-15, 1.224646799147353207E-16, -1.000000000000000000 ) ) ;
#8 = APPROVAL ( #210, 'UNSPECIFIED' ) ;
#9 = EDGE_LOOP ( 'NONE', ( #245 ) ) ;
#10 = DIRECTION ( 'NONE',  ( -4.275831445896958607E-31, -1.000000000000000000, -1.224646799147353207E-16 ) ) ;
#11 = ORIENTED_EDGE ( 'NONE', *, *, #166, .T. ) ;
#12 = CC_DESIGN_APPROVAL ( #8, ( #33 ) ) ;
#13 = EDGE_LOOP ( 'NONE', ( #138 ) ) ;
#14 = AXIS2_PLACEMENT_3D ( 'NONE', #258, #133, #10 ) ;
#15 = EDGE_LOOP ( 'NONE', ( #273 ) ) ;
#16 = AXIS2_PLACEMENT_3D ( 'NONE', #152, #178, #241 ) ;
#17 = FACE_OUTER_BOUND ( 'NONE', #29, .T. ) ;
#18 = FACE_OUTER_BOUND ( 'NONE', #198, .T. ) ;
#19 = CARTESIAN_POINT ( 'NONE',  ( 1.117274028429802674E-13, -3.918869757271530263E-15, 32.00000000000000000 ) ) ;
#20 = APPROVAL_PERSON_ORGANIZATION ( #87, #49, #42 ) ;
#21 = DIRECTION ( 'NONE',  ( 0.0000000000000000000, 1.000000000000000000, 0.0000000000000000000 ) ) ;
#22 = ADVANCED_FACE ( 'NONE', ( #34, #226 ), #56, .T. ) ;
#23 = DIRECTION ( 'NONE',  ( -3.491481338843133355E-15, 1.224646799147353207E-16, -1.000000000000000000 ) ) ;
#24 = APPLICATION_PROTOCOL_DEFINITION ( 'international standard', 'config_control_design', 1994, #66 ) ;
#25 = PRODUCT ( '969498', '969498', '', ( #38 ) ) ;
#26 = SECURITY_CLASSIFICATION_LEVEL ( 'unclassified' ) ;
#27 = VERTEX_POINT ( 'NONE', #117 ) ;
#28 = CARTESIAN_POINT ( 'NONE',  ( 0.0000000000000000000, 0.0000000000000000000, 0.0000000000000000000 ) ) ;
#29 = EDGE_LOOP ( 'NONE', ( #52 ) ) ;
#30 = CIRCLE ( 'NONE', #194, 0.9999999999999970024 ) ;
#31 = ORIENTED_EDGE ( 'NONE', *, *, #282, .F. ) ;
#32 = DIRECTION ( 'NONE',  ( -3.491481338843133355E-15, 1.224646799147353207E-16, -1.000000000000000000 ) ) ;
#33 = PRODUCT_DEFINITION ( 'UNKNOWN', '', #136, #92 ) ;
#34 = FACE_OUTER_BOUND ( 'NONE', #50, .T. ) ;
#35 = DIRECTION ( 'NONE',  ( 0.0000000000000000000, 1.000000000000000000, 0.0000000000000000000 ) ) ;
#36 = DIRECTION ( 'NONE',  ( -3.491481338843133355E-15, 1.224646799147353207E-16, -1.000000000000000000 ) ) ;
#37 = CIRCLE ( 'NONE', #148, 0.3624999999999994893 ) ;
#38 = MECHANICAL_CONTEXT ( 'NONE', #66, 'mechanical' ) ;
#39 = CARTESIAN_POINT ( 'NONE',  ( 1.668721915867688301E-14, 0.3795370868554644450, 4.779409522551257616 ) ) ;
#40 = CARTESIAN_POINT ( 'NONE',  ( 1.856829969409411637E-15, 0.3624999999999994338, 0.5318172400785774467 ) ) ;
#41 = PERSON_AND_ORGANIZATION ( #119, #242 ) ;
#42 = APPROVAL_ROLE ( '' ) ;
#43 = PERSON_AND_ORGANIZATION_ROLE ( 'creator' ) ;
#44 = VERTEX_POINT ( 'NONE', #191 ) ;
#45 = EDGE_LOOP ( 'NONE', ( #76 ) ) ;
#46 = VERTEX_POINT ( 'NONE', #40 ) ;
#47 = MANIFOLD_SOLID_BREP ( 'Corps-Déplacer/Copier1[2]', #225 ) ;
#48 = DIRECTION ( 'NONE',  ( -3.491481338843133355E-15, 1.224646799147353207E-16, -1.000000000000000000 ) ) ;
#49 = APPROVAL ( #154, 'UNSPECIFIED' ) ;
#50 = EDGE_LOOP ( 'NONE', ( #170 ) ) ;
#51 = AXIS2_PLACEMENT_3D ( 'NONE', #279, #32, #128 ) ;
#52 = ORIENTED_EDGE ( 'NONE', *, *, #218, .T. ) ;
#53 = PLANE ( 'NONE',  #253 ) ;
#54 = ADVANCED_FACE ( 'NONE', ( #222, #17 ), #139, .F. ) ;
#55 = ORIENTED_EDGE ( 'NONE', *, *, #239, .T. ) ;
#56 = CONICAL_SURFACE ( 'NONE', #231, 0.8000000000000002665, 0.7853981633974518317 ) ;
#57 = CARTESIAN_POINT ( 'NONE',  ( 2.477209026066874000E-14, -8.688879619207465137E-16, 7.095008638618907959 ) ) ;
#58 =( GEOMETRIC_REPRESENTATION_CONTEXT ( 3 ) GLOBAL_UNCERTAINTY_ASSIGNED_CONTEXT ( ( #192 ) ) GLOBAL_UNIT_ASSIGNED_CONTEXT ( ( #6, #269, #215 ) ) REPRESENTATION_CONTEXT ( 'NONE', 'WORKASPACE' ) );
#59 = CYLINDRICAL_SURFACE ( 'NONE', #135, 0.3624999999999999889 ) ;
#60 = CC_DESIGN_PERSON_AND_ORGANIZATION_ASSIGNMENT ( #2, #71, ( #25 ) ) ;
#61 = DIRECTION ( 'NONE',  ( -3.491481338843133355E-15, 1.224646799147353207E-16, -1.000000000000000000 ) ) ;
#62 = VERTEX_POINT ( 'NONE', #39 ) ;
#63 = CIRCLE ( 'NONE', #102, 0.3795370868554650556 ) ;
#64 = APPROVAL_PERSON_ORGANIZATION ( #75, #268, #121 ) ;
#65 = PERSON_AND_ORGANIZATION ( #119, #242 ) ;
#66 = APPLICATION_CONTEXT ( 'configuration controlled 3d designs of mechanical parts and assemblies' ) ;
#67 = FACE_OUTER_BOUND ( 'NONE', #45, .T. ) ;
#68 = CC_DESIGN_PERSON_AND_ORGANIZATION_ASSIGNMENT ( #65, #113, ( #136 ) ) ;
#69 = COORDINATED_UNIVERSAL_TIME_OFFSET ( 1, 0, .AHEAD. ) ;
#70 = CALENDAR_DATE ( 2021, 16, 12 ) ;
#71 = PERSON_AND_ORGANIZATION_ROLE ( 'design_owner' ) ;
#72 = SECURITY_CLASSIFICATION ( '', '', #26 ) ;
#73 = FACE_OUTER_BOUND ( 'NONE', #13, .T. ) ;
#74 = CALENDAR_DATE ( 2021, 16, 12 ) ;
#75 = PERSON_AND_ORGANIZATION ( #119, #242 ) ;
#76 = ORIENTED_EDGE ( 'NONE', *, *, #163, .F. ) ;
#77 = DATE_AND_TIME ( #74, #173 ) ;
#78 = EDGE_CURVE ( 'NONE', #265, #265, #30, .T. ) ;
#79 = FACE_OUTER_BOUND ( 'NONE', #15, .T. ) ;
#80 = CYLINDRICAL_SURFACE ( 'NONE', #118, 0.9999999999999986677 ) ;
#81 = FACE_OUTER_BOUND ( 'NONE', #255, .T. ) ;
#82 = CIRCLE ( 'NONE', #237, 0.8000000000000002665 ) ;
#83 = FACE_OUTER_BOUND ( 'NONE', #224, .T. ) ;
#84 = ADVANCED_FACE ( 'NONE', ( #276 ), #53, .F. ) ;
#85 = DIRECTION ( 'NONE',  ( -3.491481338843133355E-15, 1.224646799147353207E-16, -1.000000000000000000 ) ) ;
#86 = DIRECTION ( 'NONE',  ( -4.275831445896958607E-31, -1.000000000000000000, -1.224646799147353207E-16 ) ) ;
#87 = PERSON_AND_ORGANIZATION ( #119, #242 ) ;
#88 = VERTEX_POINT ( 'NONE', #174 ) ;
#89 = APPROVAL_PERSON_ORGANIZATION ( #41, #8, #110 ) ;
#90 = CARTESIAN_POINT ( 'NONE',  ( 0.0000000000000000000, 0.0000000000000000000, 0.0000000000000000000 ) ) ;
#91 = APPLICATION_PROTOCOL_DEFINITION ( 'international standard', 'config_control_design', 1994, #97 ) ;
#92 = DESIGN_CONTEXT ( 'detailed design', #97, 'design' ) ;
#93 = DATE_AND_TIME ( #175, #156 ) ;
#94 = AXIS2_PLACEMENT_3D ( 'NONE', #229, #36, #206 ) ;
#95 = COORDINATED_UNIVERSAL_TIME_OFFSET ( 1, 0, .AHEAD. ) ;
#96 = DIRECTION ( 'NONE',  ( 0.0000000000000000000, -1.000000000000000000, 0.0000000000000000000 ) ) ;
#97 = APPLICATION_CONTEXT ( 'configuration controlled 3d designs of mechanical parts and assemblies' ) ;
#98 = VERTEX_POINT ( 'NONE', #283 ) ;
#99 = CC_DESIGN_DATE_AND_TIME_ASSIGNMENT ( #115, #193, ( #72 ) ) ;
#100 = ORIENTED_EDGE ( 'NONE', *, *, #195, .T. ) ;
#101 = CARTESIAN_POINT ( 'NONE',  ( 1.396592535537253342E-14, -4.898587196589412829E-16, 4.000000000000000000 ) ) ;
#102 = AXIS2_PLACEMENT_3D ( 'NONE', #109, #48, #21 ) ;
#103 = ORIENTED_EDGE ( 'NONE', *, *, #188, .T. ) ;
#104 = PRODUCT_DEFINITION_SHAPE ( 'NONE', 'NONE',  #33 ) ;
#105 = CARTESIAN_POINT ( 'NONE',  ( -3.520454698997178384E-32, 1.234809285877112229E-33, -1.008298300160368183E-17 ) ) ;
#106 = EDGE_LOOP ( 'NONE', ( #141 ) ) ;
#107 = CARTESIAN_POINT ( 'NONE',  ( 0.0000000000000000000, 0.0000000000000000000, 0.0000000000000000000 ) ) ;
#108 = CC_DESIGN_APPROVAL ( #268, ( #72 ) ) ;
#109 = CARTESIAN_POINT ( 'NONE',  ( 1.668721915867688301E-14, -5.853088573606777450E-16, 4.779409522551257616 ) ) ;
#110 = APPROVAL_ROLE ( '' ) ;
#111 = ADVANCED_FACE ( 'NONE', ( #81, #278 ), #80, .T. ) ;
#112 = CARTESIAN_POINT ( 'NONE',  ( 1.396592535537253342E-14, 0.3624999999999994338, 4.000000000000000000 ) ) ;
#113 = PERSON_AND_ORGANIZATION_ROLE ( 'creator' ) ;
#114 = AXIS2_PLACEMENT_3D ( 'NONE', #90, #230, #4 ) ;
#115 = DATE_AND_TIME ( #116, #220 ) ;
#116 = CALENDAR_DATE ( 2021, 16, 12 ) ;
#117 = CARTESIAN_POINT ( 'NONE',  ( 1.623538822562057326E-14, 0.3624999999999994338, 4.650000000000000355 ) ) ;
#118 = AXIS2_PLACEMENT_3D ( 'NONE', #107, #125, #167 ) ;
#119 = PERSON ( 'UNSPECIFIED', 'UNSPECIFIED', 'UNSPECIFIED', ('UNSPECIFIED'), ('UNSPECIFIED'), ('UNSPECIFIED') ) ;
#120 = FACE_OUTER_BOUND ( 'NONE', #219, .T. ) ;
#121 = APPROVAL_ROLE ( '' ) ;
#122 = CONICAL_SURFACE ( 'NONE', #249, 0.3624999999999994893, 0.2617993877991427465 ) ;
#123 = ORIENTED_EDGE ( 'NONE', *, *, #188, .F. ) ;
#124 = ORIENTED_EDGE ( 'NONE', *, *, #78, .T. ) ;
#125 = DIRECTION ( 'NONE',  ( -3.491481338843133355E-15, 1.224646799147353207E-16, -1.000000000000000000 ) ) ;
#126 = CIRCLE ( 'NONE', #168, 0.2199999999999999734 ) ;
#127 = LOCAL_TIME ( 14, 16, 20.00000000000000000, #172 ) ;
#128 = DIRECTION ( 'NONE',  ( 4.275831445896958607E-31, 1.000000000000000000, 1.224646799147353207E-16 ) ) ;
#129 = DIRECTION ( 'NONE',  ( 0.0000000000000000000, 1.000000000000000000, 0.0000000000000000000 ) ) ;
#130 = CARTESIAN_POINT ( 'NONE',  ( 2.477209026066874000E-14, -8.688879619207465137E-16, 7.095008638618907959 ) ) ;
#131 = DIRECTION ( 'NONE',  ( 4.275831445896957731E-31, 1.000000000000000000, 1.224646799147352961E-16 ) ) ;
#132 = CYLINDRICAL_SURFACE ( 'NONE', #186, 0.3624999999999997113 ) ;
#133 = DIRECTION ( 'NONE',  ( 3.491481338843133355E-15, -1.224646799147353207E-16, 1.000000000000000000 ) ) ;
#134 = COORDINATED_UNIVERSAL_TIME_OFFSET ( 1, 0, .AHEAD. ) ;
#135 = AXIS2_PLACEMENT_3D ( 'NONE', #146, #228, #131 ) ;
#136 = PRODUCT_DEFINITION_FORMATION_WITH_SPECIFIED_SOURCE ( 'ANY', '', #25, .NOT_KNOWN. ) ;
#137 = CARTESIAN_POINT ( 'NONE',  ( 1.396592535537253342E-14, 0.3624999999999994338, 4.000000000000000000 ) ) ;
#138 = ORIENTED_EDGE ( 'NONE', *, *, #163, .T. ) ;
#139 = TOROIDAL_SURFACE ( 'NONE', #51, 0.8624999999999999334, 0.5000000000000000000 ) ;
#140 = DIRECTION ( 'NONE',  ( 3.491481338843133355E-15, -1.224646799147353207E-16, 1.000000000000000000 ) ) ;
#141 = ORIENTED_EDGE ( 'NONE', *, *, #223, .T. ) ;
#142 = PLANE ( 'NONE',  #208 ) ;
#143 = AXIS2_PLACEMENT_3D ( 'NONE', #130, #207, #187 ) ;
#144 = MANIFOLD_SOLID_BREP ( 'Corps-Déplacer/Copier1[1]', #270 ) ;
#145 = FACE_BOUND ( 'NONE', #221, .T. ) ;
#146 = CARTESIAN_POINT ( 'NONE',  ( 0.0000000000000000000, 0.0000000000000000000, 0.0000000000000000000 ) ) ;
#147 = DIRECTION ( 'NONE',  ( 3.491481338843133355E-15, -1.224646799147353207E-16, 1.000000000000000000 ) ) ;
#148 = AXIS2_PLACEMENT_3D ( 'NONE', #250, #202, #277 ) ;
#149 = FACE_BOUND ( 'NONE', #9, .T. ) ;
#150 = ADVANCED_FACE ( 'NONE', ( #79 ), #142, .F. ) ;
#151 = PERSON_AND_ORGANIZATION ( #119, #242 ) ;
#152 = CARTESIAN_POINT ( 'NONE',  ( 1.623538822562057326E-14, -5.694607616035192869E-16, 4.650000000000000355 ) ) ;
#153 = DATE_TIME_ROLE ( 'creation_date' ) ;
#154 = APPROVAL_STATUS ( 'not_yet_approved' ) ;
#155 = ADVANCED_FACE ( 'NONE', ( #145, #184 ), #200, .T. ) ;
#156 = LOCAL_TIME ( 14, 16, 20.00000000000000000, #69 ) ;
#157 = PERSON_AND_ORGANIZATION ( #119, #242 ) ;
#158 = DIRECTION ( 'NONE',  ( 3.491481338843133355E-15, -1.224646799147353207E-16, 1.000000000000000000 ) ) ;
#159 = APPROVAL_DATE_TIME ( #77, #268 ) ;
#160 = DIRECTION ( 'NONE',  ( 4.275831445896958607E-31, 1.000000000000000000, 1.224646799147353454E-16 ) ) ;
#161 = CARTESIAN_POINT ( 'NONE',  ( 1.856829969409411637E-15, -6.512882807936093228E-17, 0.5318172400785774467 ) ) ;
#162 = EDGE_LOOP ( 'NONE', ( #100 ) ) ;
#163 = EDGE_CURVE ( 'NONE', #267, #267, #280, .T. ) ;
#164 = CARTESIAN_POINT ( 'NONE',  ( 1.117274028429802674E-13, 5.999039130647374325E-33, 32.00000000000000000 ) ) ;
#165 = CARTESIAN_POINT ( 'NONE',  ( 1.110291065752116407E-13, -3.894376821288583549E-15, 31.80000000000000071 ) ) ;
#166 = EDGE_CURVE ( 'NONE', #212, #212, #275, .T. ) ;
#167 = DIRECTION ( 'NONE',  ( 4.275831445896959482E-31, 1.000000000000000000, 1.224646799147353454E-16 ) ) ;
#168 = AXIS2_PLACEMENT_3D ( 'NONE', #235, #23, #244 ) ;
#169 = DIRECTION ( 'NONE',  ( 4.275831445896958607E-31, 1.000000000000000000, 1.224646799147353207E-16 ) ) ;
#170 = ORIENTED_EDGE ( 'NONE', *, *, #195, .F. ) ;
#171 = CARTESIAN_POINT ( 'NONE',  ( 2.477209026066874000E-14, 0.9999999999999961142, 7.095008638618907959 ) ) ;
#172 = COORDINATED_UNIVERSAL_TIME_OFFSET ( 1, 0, .AHEAD. ) ;
#173 = LOCAL_TIME ( 14, 16, 20.00000000000000000, #95 ) ;
#174 = CARTESIAN_POINT ( 'NONE',  ( 1.117274028429802674E-13, 0.7999999999999963807, 32.00000000000000000 ) ) ;
#175 = CALENDAR_DATE ( 2021, 16, 12 ) ;
#176 = CALENDAR_DATE ( 2021, 16, 12 ) ;
#177 = APPROVAL_STATUS ( 'not_yet_approved' ) ;
#178 = DIRECTION ( 'NONE',  ( -3.491481338843133355E-15, 1.224646799147353207E-16, -1.000000000000000000 ) ) ;
#179 = ORIENTED_EDGE ( 'NONE', *, *, #218, .F. ) ;
#180 = EDGE_LOOP ( 'NONE', ( #31 ) ) ;
#181 = ADVANCED_FACE ( 'NONE', ( #18, #83 ), #59, .T. ) ;
#182 = EDGE_LOOP ( 'NONE', ( #103 ) ) ;
#183 = AXIS2_PLACEMENT_3D ( 'NONE', #165, #251, #196 ) ;
#184 = FACE_OUTER_BOUND ( 'NONE', #266, .T. ) ;
#185 = DIRECTION ( 'NONE',  ( -4.275831445896958607E-31, -1.000000000000000000, -1.224646799147353207E-16 ) ) ;
#186 = AXIS2_PLACEMENT_3D ( 'NONE', #28, #211, #160 ) ;
#187 = DIRECTION ( 'NONE',  ( 0.0000000000000000000, -1.000000000000000000, 0.0000000000000000000 ) ) ;
#188 = EDGE_CURVE ( 'NONE', #46, #46, #37, .T. ) ;
#189 = PLANE ( 'NONE',  #260 ) ;
#190 = DATE_AND_TIME ( #70, #213 ) ;
#191 = CARTESIAN_POINT ( 'NONE',  ( 1.110291065752116407E-13, 0.9999999999999965583, 31.80000000000000071 ) ) ;
#192 = UNCERTAINTY_MEASURE_WITH_UNIT (LENGTH_MEASURE( 1.000000000000000082E-05 ), #6, 'distance_accuracy_value', 'NONE');
#193 = DATE_TIME_ROLE ( 'classification_date' ) ;
#194 = AXIS2_PLACEMENT_3D ( 'NONE', #57, #209, #205 ) ;
#195 = EDGE_CURVE ( 'NONE', #44, #44, #203, .T. ) ;
#196 = DIRECTION ( 'NONE',  ( 0.0000000000000000000, 1.000000000000000000, 0.0000000000000000000 ) ) ;
#197 = CARTESIAN_POINT ( 'NONE',  ( 1.396592535537253342E-14, 2.718314606074609388E-33, 4.000000000000000000 ) ) ;
#198 = EDGE_LOOP ( 'NONE', ( #256 ) ) ;
#199 = ADVANCED_FACE ( 'NONE', ( #240, #73 ), #132, .T. ) ;
#200 = CONICAL_SURFACE ( 'NONE', #143, 0.9999999999999970024, 0.2617993877991428020 ) ;
#201 = EDGE_LOOP ( 'NONE', ( #55 ) ) ;
#202 = DIRECTION ( 'NONE',  ( -3.491481338843133355E-15, 1.224646799147353207E-16, -1.000000000000000000 ) ) ;
#203 = CIRCLE ( 'NONE', #183, 1.000000000000000444 ) ;
#204 = CC_DESIGN_SECURITY_CLASSIFICATION ( #72, ( #136 ) ) ;
#205 = DIRECTION ( 'NONE',  ( 0.0000000000000000000, 1.000000000000000000, 0.0000000000000000000 ) ) ;
#206 = DIRECTION ( 'NONE',  ( 0.0000000000000000000, 1.000000000000000000, 0.0000000000000000000 ) ) ;
#207 = DIRECTION ( 'NONE',  ( 3.491481338843133355E-15, -1.224646799147353207E-16, 1.000000000000000000 ) ) ;
#208 = AXIS2_PLACEMENT_3D ( 'NONE', #164, #252, #169 ) ;
#209 = DIRECTION ( 'NONE',  ( -3.491481338843133355E-15, 1.224646799147353207E-16, -1.000000000000000000 ) ) ;
#210 = APPROVAL_STATUS ( 'not_yet_approved' ) ;
#211 = DIRECTION ( 'NONE',  ( -3.491481338843133355E-15, 1.224646799147353207E-16, -1.000000000000000000 ) ) ;
#212 = VERTEX_POINT ( 'NONE', #137 ) ;
#213 = LOCAL_TIME ( 14, 16, 20.00000000000000000, #262 ) ;
#214 = APPROVAL_DATE_TIME ( #93, #8 ) ;
#215 =( NAMED_UNIT ( * ) SI_UNIT ( $, .STERADIAN. ) SOLID_ANGLE_UNIT ( ) );
#216 = ORIENTED_EDGE ( 'NONE', *, *, #282, .T. ) ;
#217 = DIRECTION ( 'NONE',  ( 0.0000000000000000000, 1.000000000000000000, 0.0000000000000000000 ) ) ;
#218 = EDGE_CURVE ( 'NONE', #62, #62, #63, .T. ) ;
#219 = EDGE_LOOP ( 'NONE', ( #11 ) ) ;
#220 = LOCAL_TIME ( 14, 16, 20.00000000000000000, #134 ) ;
#221 = EDGE_LOOP ( 'NONE', ( #179 ) ) ;
#222 = FACE_OUTER_BOUND ( 'NONE', #180, .T. ) ;
#223 = EDGE_CURVE ( 'NONE', #98, #98, #126, .T. ) ;
#224 = EDGE_LOOP ( 'NONE', ( #216 ) ) ;
#225 = CLOSED_SHELL ( 'NONE', ( #84, #264, #199, #257 ) ) ;
#226 = FACE_BOUND ( 'NONE', #201, .T. ) ;
#227 = CC_DESIGN_PERSON_AND_ORGANIZATION_ASSIGNMENT ( #151, #234, ( #72 ) ) ;
#228 = DIRECTION ( 'NONE',  ( -3.491481338843133355E-15, 1.224646799147353207E-16, -1.000000000000000000 ) ) ;
#229 = CARTESIAN_POINT ( 'NONE',  ( 1.396592535537253342E-14, -4.898587196589412829E-16, 4.000000000000000000 ) ) ;
#230 = DIRECTION ( 'NONE',  ( 0.0000000000000000000, 0.0000000000000000000, 1.000000000000000000 ) ) ;
#231 = AXIS2_PLACEMENT_3D ( 'NONE', #19, #61, #129 ) ;
#232 = CARTESIAN_POINT ( 'NONE',  ( 1.117274028429802674E-13, -3.918869757271530263E-15, 32.00000000000000000 ) ) ;
#233 = CC_DESIGN_PERSON_AND_ORGANIZATION_ASSIGNMENT ( #157, #43, ( #33 ) ) ;
#234 = PERSON_AND_ORGANIZATION_ROLE ( 'classification_officer' ) ;
#235 = CARTESIAN_POINT ( 'NONE',  ( -7.040909397994356768E-32, 2.469618571754224458E-33, -2.016596600320736365E-17 ) ) ;
#236 = PERSON_AND_ORGANIZATION_ROLE ( 'design_supplier' ) ;
#237 = AXIS2_PLACEMENT_3D ( 'NONE', #232, #7, #217 ) ;
#238 = PERSON_AND_ORGANIZATION ( #119, #242 ) ;
#239 = EDGE_CURVE ( 'NONE', #88, #88, #82, .T. ) ;
#240 = FACE_OUTER_BOUND ( 'NONE', #272, .T. ) ;
#241 = DIRECTION ( 'NONE',  ( 0.0000000000000000000, 1.000000000000000000, 0.0000000000000000000 ) ) ;
#242 = ORGANIZATION ( 'UNSPECIFIED', 'UNSPECIFIED', '' ) ;
#243 = PRODUCT_RELATED_PRODUCT_CATEGORY ( 'detail', '', ( #25 ) ) ;
#244 = DIRECTION ( 'NONE',  ( 4.275831445896958607E-31, 1.000000000000000000, 1.224646799147353207E-16 ) ) ;
#245 = ORIENTED_EDGE ( 'NONE', *, *, #223, .F. ) ;
#246 = ADVANCED_BREP_SHAPE_REPRESENTATION ( '969498', ( #144, #47, #114 ), #58 ) ;
#247 = SHAPE_DEFINITION_REPRESENTATION ( #104, #246 ) ;
#248 = ORIENTED_EDGE ( 'NONE', *, *, #78, .F. ) ;
#249 = AXIS2_PLACEMENT_3D ( 'NONE', #161, #158, #96 ) ;
#250 = CARTESIAN_POINT ( 'NONE',  ( 1.856829969409411637E-15, -6.512882807936093228E-17, 0.5318172400785774467 ) ) ;
#251 = DIRECTION ( 'NONE',  ( -3.491481338843133355E-15, 1.224646799147353207E-16, -1.000000000000000000 ) ) ;
#252 = DIRECTION ( 'NONE',  ( -3.491481338843133355E-15, 1.224646799147353207E-16, -1.000000000000000000 ) ) ;
#253 = AXIS2_PLACEMENT_3D ( 'NONE', #105, #147, #185 ) ;
#254 = ADVANCED_FACE ( 'NONE', ( #120 ), #189, .F. ) ;
#255 = EDGE_LOOP ( 'NONE', ( #248 ) ) ;
#256 = ORIENTED_EDGE ( 'NONE', *, *, #166, .F. ) ;
#257 = ADVANCED_FACE ( 'NONE', ( #67 ), #261, .T. ) ;
#258 = CARTESIAN_POINT ( 'NONE',  ( 1.396592535537253342E-14, 2.718314606074609388E-33, 4.000000000000000000 ) ) ;
#259 = DATE_AND_TIME ( #176, #127 ) ;
#260 = AXIS2_PLACEMENT_3D ( 'NONE', #197, #140, #86 ) ;
#261 = PLANE ( 'NONE',  #14 ) ;
#262 = COORDINATED_UNIVERSAL_TIME_OFFSET ( 1, 0, .AHEAD. ) ;
#263 = APPROVAL_DATE_TIME ( #259, #49 ) ;
#264 = ADVANCED_FACE ( 'NONE', ( #149, #281 ), #122, .T. ) ;
#265 = VERTEX_POINT ( 'NONE', #171 ) ;
#266 = EDGE_LOOP ( 'NONE', ( #124 ) ) ;
#267 = VERTEX_POINT ( 'NONE', #112 ) ;
#268 = APPROVAL ( #177, 'UNSPECIFIED' ) ;
#269 =( NAMED_UNIT ( * ) PLANE_ANGLE_UNIT ( ) SI_UNIT ( $, .RADIAN. ) );
#270 = CLOSED_SHELL ( 'NONE', ( #254, #181, #54, #155, #111, #22, #150 ) ) ;
#271 = CC_DESIGN_APPROVAL ( #49, ( #136 ) ) ;
#272 = EDGE_LOOP ( 'NONE', ( #123 ) ) ;
#273 = ORIENTED_EDGE ( 'NONE', *, *, #239, .F. ) ;
#274 = CC_DESIGN_DATE_AND_TIME_ASSIGNMENT ( #190, #153, ( #33 ) ) ;
#275 = CIRCLE ( 'NONE', #94, 0.3624999999999999334 ) ;
#276 = FACE_OUTER_BOUND ( 'NONE', #106, .T. ) ;
#277 = DIRECTION ( 'NONE',  ( 0.0000000000000000000, 1.000000000000000000, 0.0000000000000000000 ) ) ;
#278 = FACE_OUTER_BOUND ( 'NONE', #162, .T. ) ;
#279 = CARTESIAN_POINT ( 'NONE',  ( 1.623538822562057326E-14, -5.421010862427522170E-16, 4.650000000000000355 ) ) ;
#280 = CIRCLE ( 'NONE', #5, 0.3624999999999999334 ) ;
#281 = FACE_OUTER_BOUND ( 'NONE', #182, .T. ) ;
#282 = EDGE_CURVE ( 'NONE', #27, #27, #1, .T. ) ;
#283 = CARTESIAN_POINT ( 'NONE',  ( 2.365919782978951696E-32, 0.2199999999999999734, 6.776263578034402713E-18 ) ) ;
ENDSEC;
END-ISO-10303-21;
