ISO-10303-21;
HEADER;
FILE_DESCRIPTION (( 'STEP AP203' ),
    '1' );
FILE_NAME ('969497.step',
    '2021-12-16T13:16:20',
    ( '' ),
    ( '' ),
    'SwSTEP 2.0',
    'SolidWorks 2019',
    '' );
FILE_SCHEMA (( 'CONFIG_CONTROL_DESIGN' ));
ENDSEC;

DATA;
#1 = CIRCLE ( 'NONE', #16, 0.8000000000000002665 ) ;
#2 = AXIS2_PLACEMENT_3D ( 'NONE', #114, #108, #229 ) ;
#3 = CARTESIAN_POINT ( 'NONE',  ( 0.0000000000000000000, 0.0000000000000000000, 0.0000000000000000000 ) ) ;
#4 = DIRECTION ( 'NONE',  ( -3.491481338843133355E-15, 1.224646799147353207E-16, -1.000000000000000000 ) ) ;
#5 = EDGE_LOOP ( 'NONE', ( #233 ) ) ;
#6 = CIRCLE ( 'NONE', #200, 0.3109999999999999987 ) ;
#7 = CARTESIAN_POINT ( 'NONE',  ( 2.544315512680617824E-14, -8.924257489108315457E-16, 7.287209255208709102 ) ) ;
#8 = ORIENTED_EDGE ( 'NONE', *, *, #238, .T. ) ;
#9 = DIRECTION ( 'NONE',  ( 4.275831445896959482E-31, 1.000000000000000000, 1.224646799147353454E-16 ) ) ;
#10 = CARTESIAN_POINT ( 'NONE',  ( 1.117274028429802674E-13, 5.999039130647374325E-33, 32.00000000000000000 ) ) ;
#11 = EDGE_LOOP ( 'NONE', ( #160 ) ) ;
#12 =( LENGTH_UNIT ( ) NAMED_UNIT ( * ) SI_UNIT ( .MILLI., .METRE. ) );
#13 = ORIENTED_EDGE ( 'NONE', *, *, #240, .F. ) ;
#14 = CC_DESIGN_PERSON_AND_ORGANIZATION_ASSIGNMENT ( #155, #167, ( #242 ) ) ;
#15 = FACE_OUTER_BOUND ( 'NONE', #111, .T. ) ;
#16 = AXIS2_PLACEMENT_3D ( 'NONE', #268, #4, #42 ) ;
#17 = ORGANIZATION ( 'UNSPECIFIED', 'UNSPECIFIED', '' ) ;
#18 = VERTEX_POINT ( 'NONE', #274 ) ;
#19 = DIRECTION ( 'NONE',  ( 0.0000000000000000000, 0.0000000000000000000, 1.000000000000000000 ) ) ;
#20 = EDGE_CURVE ( 'NONE', #251, #251, #277, .T. ) ;
#21 = PERSON_AND_ORGANIZATION ( #186, #17 ) ;
#22 = ADVANCED_BREP_SHAPE_REPRESENTATION ( '969497', ( #168, #77, #216 ), #121 ) ;
#23 = APPROVAL_ROLE ( '' ) ;
#24 = LOCAL_TIME ( 14, 16, 20.00000000000000000, #64 ) ;
#25 = CARTESIAN_POINT ( 'NONE',  ( 0.0000000000000000000, 0.0000000000000000000, 0.0000000000000000000 ) ) ;
#26 = EDGE_LOOP ( 'NONE', ( #90 ) ) ;
#27 = DIRECTION ( 'NONE',  ( 4.275831445896958607E-31, 1.000000000000000000, 1.224646799147353207E-16 ) ) ;
#28 = AXIS2_PLACEMENT_3D ( 'NONE', #7, #82, #65 ) ;
#29 = FACE_OUTER_BOUND ( 'NONE', #85, .T. ) ;
#30 = VERTEX_POINT ( 'NONE', #204 ) ;
#31 =( NAMED_UNIT ( * ) SI_UNIT ( $, .STERADIAN. ) SOLID_ANGLE_UNIT ( ) );
#32 = DIRECTION ( 'NONE',  ( 4.275831445896958607E-31, 1.000000000000000000, 1.224646799147353207E-16 ) ) ;
#33 = CONICAL_SURFACE ( 'NONE', #185, 0.9999999999999970024, 0.2617993877991426910 ) ;
#34 = VERTEX_POINT ( 'NONE', #279 ) ;
#35 = CARTESIAN_POINT ( 'NONE',  ( 1.117274028429802674E-13, 0.7999999999999963807, 32.00000000000000000 ) ) ;
#36 = ADVANCED_FACE ( 'NONE', ( #253 ), #70, .F. ) ;
#37 = PERSON_AND_ORGANIZATION_ROLE ( 'design_supplier' ) ;
#38 = DESIGN_CONTEXT ( 'detailed design', #101, 'design' ) ;
#39 = AXIS2_PLACEMENT_3D ( 'NONE', #252, #41, #271 ) ;
#40 = CARTESIAN_POINT ( 'NONE',  ( 1.396592535537253342E-14, 2.332126462039181451E-33, 4.000000000000000000 ) ) ;
#41 = DIRECTION ( 'NONE',  ( -3.491481338843133355E-15, 1.224646799147353207E-16, -1.000000000000000000 ) ) ;
#42 = DIRECTION ( 'NONE',  ( 0.0000000000000000000, 1.000000000000000000, 0.0000000000000000000 ) ) ;
#43 = APPROVAL_STATUS ( 'not_yet_approved' ) ;
#44 = APPROVAL_PERSON_ORGANIZATION ( #188, #66, #214 ) ;
#45 = CARTESIAN_POINT ( 'NONE',  ( -5.758159964225269536E-32, 2.019690636955667313E-33, -1.649202560576530601E-17 ) ) ;
#46 = EDGE_LOOP ( 'NONE', ( #227 ) ) ;
#47 = FACE_OUTER_BOUND ( 'NONE', #272, .T. ) ;
#48 = ORIENTED_EDGE ( 'NONE', *, *, #193, .F. ) ;
#49 = ORIENTED_EDGE ( 'NONE', *, *, #177, .T. ) ;
#50 = CC_DESIGN_PERSON_AND_ORGANIZATION_ASSIGNMENT ( #59, #37, ( #61 ) ) ;
#51 = EDGE_LOOP ( 'NONE', ( #249 ) ) ;
#52 = FACE_OUTER_BOUND ( 'NONE', #83, .T. ) ;
#53 = DIRECTION ( 'NONE',  ( 3.491481338843133355E-15, -1.224646799147353207E-16, 1.000000000000000000 ) ) ;
#54 = APPLICATION_PROTOCOL_DEFINITION ( 'international standard', 'config_control_design', 1994, #101 ) ;
#55 = DIRECTION ( 'NONE',  ( 3.491481338843133355E-15, -1.224646799147353207E-16, 1.000000000000000000 ) ) ;
#56 = CLOSED_SHELL ( 'NONE', ( #282, #57, #266, #75 ) ) ;
#57 = ADVANCED_FACE ( 'NONE', ( #72, #154 ), #256, .T. ) ;
#58 = PERSON_AND_ORGANIZATION_ROLE ( 'classification_officer' ) ;
#59 = PERSON_AND_ORGANIZATION ( #186, #17 ) ;
#60 = EDGE_CURVE ( 'NONE', #34, #34, #135, .T. ) ;
#61 = PRODUCT_DEFINITION_FORMATION_WITH_SPECIFIED_SOURCE ( 'ANY', '', #162, .NOT_KNOWN. ) ;
#62 = AXIS2_PLACEMENT_3D ( 'NONE', #40, #217, #192 ) ;
#63 = ADVANCED_FACE ( 'NONE', ( #140, #181 ), #33, .T. ) ;
#64 = COORDINATED_UNIVERSAL_TIME_OFFSET ( 1, 0, .AHEAD. ) ;
#65 = DIRECTION ( 'NONE',  ( 0.0000000000000000000, 1.000000000000000000, 0.0000000000000000000 ) ) ;
#66 = APPROVAL ( #43, 'UNSPECIFIED' ) ;
#67 = AXIS2_PLACEMENT_3D ( 'NONE', #3, #69, #267 ) ;
#68 = EDGE_LOOP ( 'NONE', ( #152 ) ) ;
#69 = DIRECTION ( 'NONE',  ( -3.491481338843133355E-15, 1.224646799147353207E-16, -1.000000000000000000 ) ) ;
#70 = PLANE ( 'NONE',  #150 ) ;
#71 =( NAMED_UNIT ( * ) PLANE_ANGLE_UNIT ( ) SI_UNIT ( $, .RADIAN. ) );
#72 = FACE_BOUND ( 'NONE', #46, .T. ) ;
#73 = VERTEX_POINT ( 'NONE', #254 ) ;
#74 = DIRECTION ( 'NONE',  ( 4.275831445896958607E-31, 1.000000000000000000, 1.224646799147353207E-16 ) ) ;
#75 = ADVANCED_FACE ( 'NONE', ( #215 ), #220, .T. ) ;
#76 = PERSON_AND_ORGANIZATION ( #186, #17 ) ;
#77 = MANIFOLD_SOLID_BREP ( 'Corps-Déplacer/Copier1[2]', #56 ) ;
#78 = TOROIDAL_SURFACE ( 'NONE', #213, 0.8110000000000000542, 0.5000000000000001110 ) ;
#79 = DATE_AND_TIME ( #138, #179 ) ;
#80 = DIRECTION ( 'NONE',  ( -3.491481338843133355E-15, 1.224646799147353207E-16, -1.000000000000000000 ) ) ;
#81 = ADVANCED_FACE ( 'NONE', ( #29 ), #113, .F. ) ;
#82 = DIRECTION ( 'NONE',  ( -3.491481338843133355E-15, 1.224646799147353207E-16, -1.000000000000000000 ) ) ;
#83 = EDGE_LOOP ( 'NONE', ( #13 ) ) ;
#84 = DIRECTION ( 'NONE',  ( -3.491481338843133355E-15, 1.224646799147353207E-16, -1.000000000000000000 ) ) ;
#85 = EDGE_LOOP ( 'NONE', ( #48 ) ) ;
#86 = EDGE_LOOP ( 'NONE', ( #49 ) ) ;
#87 = APPROVAL_ROLE ( '' ) ;
#88 = ORIENTED_EDGE ( 'NONE', *, *, #158, .F. ) ;
#89 = CARTESIAN_POINT ( 'NONE',  ( 1.396592535537253342E-14, 2.332126462039181451E-33, 4.000000000000000000 ) ) ;
#90 = ORIENTED_EDGE ( 'NONE', *, *, #60, .F. ) ;
#91 = AXIS2_PLACEMENT_3D ( 'NONE', #157, #53, #197 ) ;
#92 = SECURITY_CLASSIFICATION ( '', '', #142 ) ;
#93 = VERTEX_POINT ( 'NONE', #234 ) ;
#94 = APPROVAL_DATE_TIME ( #117, #139 ) ;
#95 = DIRECTION ( 'NONE',  ( 3.491481338843133355E-15, -1.224646799147353207E-16, 1.000000000000000000 ) ) ;
#96 = APPLICATION_PROTOCOL_DEFINITION ( 'international standard', 'config_control_design', 1994, #97 ) ;
#97 = APPLICATION_CONTEXT ( 'configuration controlled 3d designs of mechanical parts and assemblies' ) ;
#98 = PERSON_AND_ORGANIZATION_ROLE ( 'creator' ) ;
#99 = AXIS2_PLACEMENT_3D ( 'NONE', #248, #80, #196 ) ;
#100 = ADVANCED_FACE ( 'NONE', ( #52, #159 ), #178, .T. ) ;
#101 = APPLICATION_CONTEXT ( 'configuration controlled 3d designs of mechanical parts and assemblies' ) ;
#102 = PERSON_AND_ORGANIZATION ( #186, #17 ) ;
#103 = FACE_OUTER_BOUND ( 'NONE', #86, .T. ) ;
#104 = COORDINATED_UNIVERSAL_TIME_OFFSET ( 1, 0, .AHEAD. ) ;
#105 = EDGE_CURVE ( 'NONE', #73, #73, #6, .T. ) ;
#106 = DIRECTION ( 'NONE',  ( -3.491481338843133355E-15, 1.224646799147353207E-16, -1.000000000000000000 ) ) ;
#107 = ORIENTED_EDGE ( 'NONE', *, *, #20, .F. ) ;
#108 = DIRECTION ( 'NONE',  ( -3.491481338843133355E-15, 1.224646799147353207E-16, -1.000000000000000000 ) ) ;
#109 = FACE_OUTER_BOUND ( 'NONE', #172, .T. ) ;
#110 = AXIS2_PLACEMENT_3D ( 'NONE', #173, #265, #223 ) ;
#111 = EDGE_LOOP ( 'NONE', ( #8 ) ) ;
#112 = DIRECTION ( 'NONE',  ( 0.0000000000000000000, 1.000000000000000000, 0.0000000000000000000 ) ) ;
#113 = PLANE ( 'NONE',  #261 ) ;
#114 = CARTESIAN_POINT ( 'NONE',  ( 1.576676675779219468E-15, -5.530237331650997271E-17, 0.4515781477158445911 ) ) ;
#115 = CARTESIAN_POINT ( 'NONE',  ( 1.576676675779219665E-15, 0.3109999999999995546, 0.4515781477158446466 ) ) ;
#116 = MECHANICAL_CONTEXT ( 'NONE', #97, 'mechanical' ) ;
#117 = DATE_AND_TIME ( #175, #143 ) ;
#118 = PRODUCT_DEFINITION_SHAPE ( 'NONE', 'NONE',  #242 ) ;
#119 = CARTESIAN_POINT ( 'NONE',  ( 2.544315512680617824E-14, 0.9999999999999961142, 7.287209255208709102 ) ) ;
#120 = APPROVAL_STATUS ( 'not_yet_approved' ) ;
#121 =( GEOMETRIC_REPRESENTATION_CONTEXT ( 3 ) GLOBAL_UNCERTAINTY_ASSIGNED_CONTEXT ( ( #263 ) ) GLOBAL_UNIT_ASSIGNED_CONTEXT ( ( #12, #71, #31 ) ) REPRESENTATION_CONTEXT ( 'NONE', 'WORKASPACE' ) );
#122 = CLOSED_SHELL ( 'NONE', ( #36, #231, #243, #63, #224, #100, #81 ) ) ;
#123 = DATE_AND_TIME ( #164, #166 ) ;
#124 = CYLINDRICAL_SURFACE ( 'NONE', #190, 0.9999999999999986677 ) ;
#125 = COORDINATED_UNIVERSAL_TIME_OFFSET ( 1, 0, .AHEAD. ) ;
#126 = CC_DESIGN_APPROVAL ( #139, ( #242 ) ) ;
#127 = DIRECTION ( 'NONE',  ( -3.491481338843133355E-15, 1.224646799147353207E-16, -1.000000000000000000 ) ) ;
#128 = EDGE_LOOP ( 'NONE', ( #88 ) ) ;
#129 = FACE_OUTER_BOUND ( 'NONE', #51, .T. ) ;
#130 = DIRECTION ( 'NONE',  ( -4.275831445896958607E-31, -1.000000000000000000, -1.224646799147353207E-16 ) ) ;
#131 = DIRECTION ( 'NONE',  ( -3.491481338843133355E-15, 1.224646799147353207E-16, -1.000000000000000000 ) ) ;
#132 = ORIENTED_EDGE ( 'NONE', *, *, #105, .T. ) ;
#133 = CC_DESIGN_DATE_AND_TIME_ASSIGNMENT ( #123, #187, ( #242 ) ) ;
#134 = COORDINATED_UNIVERSAL_TIME_OFFSET ( 1, 0, .AHEAD. ) ;
#135 = CIRCLE ( 'NONE', #156, 0.3109999999999999987 ) ;
#136 = VERTEX_POINT ( 'NONE', #35 ) ;
#137 = APPROVAL_STATUS ( 'not_yet_approved' ) ;
#138 = CALENDAR_DATE ( 2021, 16, 12 ) ;
#139 = APPROVAL ( #137, 'UNSPECIFIED' ) ;
#140 = FACE_BOUND ( 'NONE', #128, .T. ) ;
#141 = ORIENTED_EDGE ( 'NONE', *, *, #177, .F. ) ;
#142 = SECURITY_CLASSIFICATION_LEVEL ( 'unclassified' ) ;
#143 = LOCAL_TIME ( 14, 16, 20.00000000000000000, #134 ) ;
#144 = APPROVAL ( #120, 'UNSPECIFIED' ) ;
#145 = AXIS2_PLACEMENT_3D ( 'NONE', #195, #171, #153 ) ;
#146 = CALENDAR_DATE ( 2021, 16, 12 ) ;
#147 = SHAPE_DEFINITION_REPRESENTATION ( #118, #22 ) ;
#148 = CALENDAR_DATE ( 2021, 16, 12 ) ;
#149 = FACE_OUTER_BOUND ( 'NONE', #232, .T. ) ;
#150 = AXIS2_PLACEMENT_3D ( 'NONE', #89, #176, #130 ) ;
#151 = DIRECTION ( 'NONE',  ( 0.0000000000000000000, 1.000000000000000000, 0.0000000000000000000 ) ) ;
#152 = ORIENTED_EDGE ( 'NONE', *, *, #20, .T. ) ;
#153 = DIRECTION ( 'NONE',  ( 0.0000000000000000000, 1.000000000000000000, 0.0000000000000000000 ) ) ;
#154 = FACE_OUTER_BOUND ( 'NONE', #68, .T. ) ;
#155 = PERSON_AND_ORGANIZATION ( #186, #17 ) ;
#156 = AXIS2_PLACEMENT_3D ( 'NONE', #170, #246, #151 ) ;
#157 = CARTESIAN_POINT ( 'NONE',  ( 1.576676675779219468E-15, -5.530237331650997271E-17, 0.4515781477158445911 ) ) ;
#158 = EDGE_CURVE ( 'NONE', #30, #30, #241, .T. ) ;
#159 = FACE_BOUND ( 'NONE', #11, .T. ) ;
#160 = ORIENTED_EDGE ( 'NONE', *, *, #193, .T. ) ;
#161 = PERSON_AND_ORGANIZATION ( #186, #17 ) ;
#162 = PRODUCT ( '969497', '969497', '', ( #116 ) ) ;
#163 = CARTESIAN_POINT ( 'NONE',  ( -2.879079982112634768E-32, 1.009845318477833656E-33, -8.246012802882653003E-18 ) ) ;
#164 = CALENDAR_DATE ( 2021, 16, 12 ) ;
#165 = AXIS2_PLACEMENT_3D ( 'NONE', #45, #127, #226 ) ;
#166 = LOCAL_TIME ( 14, 16, 20.00000000000000000, #125 ) ;
#167 = PERSON_AND_ORGANIZATION_ROLE ( 'creator' ) ;
#168 = MANIFOLD_SOLID_BREP ( 'Corps-Déplacer/Copier1[1]', #122 ) ;
#169 = DIRECTION ( 'NONE',  ( -3.491481338843133355E-15, 1.224646799147353207E-16, -1.000000000000000000 ) ) ;
#170 = CARTESIAN_POINT ( 'NONE',  ( 1.396592535537253342E-14, -4.898587196589412829E-16, 4.000000000000000000 ) ) ;
#171 = DIRECTION ( 'NONE',  ( -3.491481338843133355E-15, 1.224646799147353207E-16, -1.000000000000000000 ) ) ;
#172 = EDGE_LOOP ( 'NONE', ( #141 ) ) ;
#173 = CARTESIAN_POINT ( 'NONE',  ( 1.668721915867688301E-14, -5.853088573606777450E-16, 4.779409522551257616 ) ) ;
#174 = ORIENTED_EDGE ( 'NONE', *, *, #105, .F. ) ;
#175 = CALENDAR_DATE ( 2021, 16, 12 ) ;
#176 = DIRECTION ( 'NONE',  ( 3.491481338843133355E-15, -1.224646799147353207E-16, 1.000000000000000000 ) ) ;
#177 = EDGE_CURVE ( 'NONE', #93, #93, #208, .T. ) ;
#178 = CONICAL_SURFACE ( 'NONE', #39, 0.8000000000000002665, 0.7853981633974518317 ) ;
#179 = LOCAL_TIME ( 14, 16, 20.00000000000000000, #104 ) ;
#180 = ORIENTED_EDGE ( 'NONE', *, *, #158, .T. ) ;
#181 = FACE_OUTER_BOUND ( 'NONE', #5, .T. ) ;
#182 = DIRECTION ( 'NONE',  ( 0.0000000000000000000, -1.000000000000000000, 0.0000000000000000000 ) ) ;
#183 = CC_DESIGN_APPROVAL ( #144, ( #92 ) ) ;
#184 = PRODUCT_RELATED_PRODUCT_CATEGORY ( 'detail', '', ( #162 ) ) ;
#185 = AXIS2_PLACEMENT_3D ( 'NONE', #211, #95, #182 ) ;
#186 = PERSON ( 'UNSPECIFIED', 'UNSPECIFIED', 'UNSPECIFIED', ('UNSPECIFIED'), ('UNSPECIFIED'), ('UNSPECIFIED') ) ;
#187 = DATE_TIME_ROLE ( 'creation_date' ) ;
#188 = PERSON_AND_ORGANIZATION ( #186, #17 ) ;
#189 = CC_DESIGN_PERSON_AND_ORGANIZATION_ASSIGNMENT ( #161, #280, ( #162 ) ) ;
#190 = AXIS2_PLACEMENT_3D ( 'NONE', #25, #106, #9 ) ;
#191 = APPROVAL_DATE_TIME ( #194, #144 ) ;
#192 = DIRECTION ( 'NONE',  ( -4.275831445896958607E-31, -1.000000000000000000, -1.224646799147353207E-16 ) ) ;
#193 = EDGE_CURVE ( 'NONE', #136, #136, #1, .T. ) ;
#194 = DATE_AND_TIME ( #146, #199 ) ;
#195 = CARTESIAN_POINT ( 'NONE',  ( 1.623538822562057326E-14, -5.694607616035192869E-16, 4.650000000000000355 ) ) ;
#196 = DIRECTION ( 'NONE',  ( 0.0000000000000000000, 1.000000000000000000, 0.0000000000000000000 ) ) ;
#197 = DIRECTION ( 'NONE',  ( -6.192700785811055591E-31, -1.000000000000000000, -1.743090309462227983E-16 ) ) ;
#198 = CC_DESIGN_DATE_AND_TIME_ASSIGNMENT ( #79, #218, ( #92 ) ) ;
#199 = LOCAL_TIME ( 14, 16, 20.00000000000000000, #260 ) ;
#200 = AXIS2_PLACEMENT_3D ( 'NONE', #225, #84, #112 ) ;
#201 = EDGE_LOOP ( 'NONE', ( #270 ) ) ;
#202 = FACE_OUTER_BOUND ( 'NONE', #206, .T. ) ;
#203 = EDGE_LOOP ( 'NONE', ( #275 ) ) ;
#204 = CARTESIAN_POINT ( 'NONE',  ( 1.668721915867688301E-14, 0.3280370868554648434, 4.779409522551257616 ) ) ;
#205 = DIRECTION ( 'NONE',  ( -3.491481338843133355E-15, 1.224646799147353207E-16, -1.000000000000000000 ) ) ;
#206 = EDGE_LOOP ( 'NONE', ( #174 ) ) ;
#207 = DIRECTION ( 'NONE',  ( -4.275831445896958607E-31, -1.000000000000000000, -1.224646799147353207E-16 ) ) ;
#208 = CIRCLE ( 'NONE', #145, 0.3110000000000001097 ) ;
#209 = APPROVAL_PERSON_ORGANIZATION ( #76, #139, #87 ) ;
#210 = VERTEX_POINT ( 'NONE', #239 ) ;
#211 = CARTESIAN_POINT ( 'NONE',  ( 2.544315512680617824E-14, -8.924257489108315457E-16, 7.287209255208709102 ) ) ;
#212 = CYLINDRICAL_SURFACE ( 'NONE', #264, 0.3109999999999998321 ) ;
#213 = AXIS2_PLACEMENT_3D ( 'NONE', #228, #169, #27 ) ;
#214 = APPROVAL_ROLE ( '' ) ;
#215 = FACE_OUTER_BOUND ( 'NONE', #26, .T. ) ;
#216 = AXIS2_PLACEMENT_3D ( 'NONE', #257, #19, #278 ) ;
#217 = DIRECTION ( 'NONE',  ( 3.491481338843133355E-15, -1.224646799147353207E-16, 1.000000000000000000 ) ) ;
#218 = DATE_TIME_ROLE ( 'classification_date' ) ;
#219 = CYLINDRICAL_SURFACE ( 'NONE', #67, 0.3110000000000000542 ) ;
#220 = PLANE ( 'NONE',  #62 ) ;
#221 = APPROVAL_DATE_TIME ( #259, #66 ) ;
#222 = CC_DESIGN_APPROVAL ( #66, ( #61 ) ) ;
#223 = DIRECTION ( 'NONE',  ( 0.0000000000000000000, 1.000000000000000000, 0.0000000000000000000 ) ) ;
#224 = ADVANCED_FACE ( 'NONE', ( #247, #129 ), #124, .T. ) ;
#225 = CARTESIAN_POINT ( 'NONE',  ( 1.396592535537253342E-14, -4.898587196589412829E-16, 4.000000000000000000 ) ) ;
#226 = DIRECTION ( 'NONE',  ( 4.275831445896958607E-31, 1.000000000000000000, 1.224646799147353207E-16 ) ) ;
#227 = ORIENTED_EDGE ( 'NONE', *, *, #238, .F. ) ;
#228 = CARTESIAN_POINT ( 'NONE',  ( 1.623538822562057010E-14, -5.421010862427522170E-16, 4.649999999999999467 ) ) ;
#229 = DIRECTION ( 'NONE',  ( 6.192700785811055591E-31, 1.000000000000000000, 1.743090309462227983E-16 ) ) ;
#230 = PLANE ( 'NONE',  #250 ) ;
#231 = ADVANCED_FACE ( 'NONE', ( #202, #103 ), #219, .T. ) ;
#232 = EDGE_LOOP ( 'NONE', ( #107 ) ) ;
#233 = ORIENTED_EDGE ( 'NONE', *, *, #258, .T. ) ;
#234 = CARTESIAN_POINT ( 'NONE',  ( 1.623538822562057326E-14, 0.3109999999999995546, 4.650000000000000355 ) ) ;
#235 = CC_DESIGN_SECURITY_CLASSIFICATION ( #92, ( #61 ) ) ;
#236 = CARTESIAN_POINT ( 'NONE',  ( 0.0000000000000000000, 0.0000000000000000000, 0.0000000000000000000 ) ) ;
#237 = CIRCLE ( 'NONE', #99, 1.000000000000000444 ) ;
#238 = EDGE_CURVE ( 'NONE', #210, #210, #281, .T. ) ;
#239 = CARTESIAN_POINT ( 'NONE',  ( 2.365919782978951696E-32, 0.1899999999999999745, 6.776263578034402713E-18 ) ) ;
#240 = EDGE_CURVE ( 'NONE', #18, #18, #237, .T. ) ;
#241 = CIRCLE ( 'NONE', #110, 0.3280370868554654540 ) ;
#242 = PRODUCT_DEFINITION ( 'UNKNOWN', '', #61, #38 ) ;
#243 = ADVANCED_FACE ( 'NONE', ( #109, #47 ), #78, .F. ) ;
#244 = CIRCLE ( 'NONE', #28, 0.9999999999999970024 ) ;
#245 = FACE_OUTER_BOUND ( 'NONE', #201, .T. ) ;
#246 = DIRECTION ( 'NONE',  ( -3.491481338843133355E-15, 1.224646799147353207E-16, -1.000000000000000000 ) ) ;
#247 = FACE_OUTER_BOUND ( 'NONE', #203, .T. ) ;
#248 = CARTESIAN_POINT ( 'NONE',  ( 1.110291065752116407E-13, -3.894376821288583549E-15, 31.80000000000000071 ) ) ;
#249 = ORIENTED_EDGE ( 'NONE', *, *, #240, .T. ) ;
#250 = AXIS2_PLACEMENT_3D ( 'NONE', #163, #55, #207 ) ;
#251 = VERTEX_POINT ( 'NONE', #115 ) ;
#252 = CARTESIAN_POINT ( 'NONE',  ( 1.117274028429802674E-13, -3.918869757271530263E-15, 32.00000000000000000 ) ) ;
#253 = FACE_OUTER_BOUND ( 'NONE', #269, .T. ) ;
#254 = CARTESIAN_POINT ( 'NONE',  ( 1.396592535537253342E-14, 0.3109999999999995546, 4.000000000000000000 ) ) ;
#255 = CC_DESIGN_PERSON_AND_ORGANIZATION_ASSIGNMENT ( #283, #58, ( #92 ) ) ;
#256 = CONICAL_SURFACE ( 'NONE', #91, 0.3109999999999996101, 0.2617993877991428575 ) ;
#257 = CARTESIAN_POINT ( 'NONE',  ( 0.0000000000000000000, 0.0000000000000000000, 0.0000000000000000000 ) ) ;
#258 = EDGE_CURVE ( 'NONE', #276, #276, #244, .T. ) ;
#259 = DATE_AND_TIME ( #148, #24 ) ;
#260 = COORDINATED_UNIVERSAL_TIME_OFFSET ( 1, 0, .AHEAD. ) ;
#261 = AXIS2_PLACEMENT_3D ( 'NONE', #10, #205, #74 ) ;
#262 = APPROVAL_PERSON_ORGANIZATION ( #102, #144, #23 ) ;
#263 = UNCERTAINTY_MEASURE_WITH_UNIT (LENGTH_MEASURE( 1.000000000000000082E-05 ), #12, 'distance_accuracy_value', 'NONE');
#264 = AXIS2_PLACEMENT_3D ( 'NONE', #236, #131, #32 ) ;
#265 = DIRECTION ( 'NONE',  ( -3.491481338843133355E-15, 1.224646799147353207E-16, -1.000000000000000000 ) ) ;
#266 = ADVANCED_FACE ( 'NONE', ( #149, #245 ), #212, .T. ) ;
#267 = DIRECTION ( 'NONE',  ( 4.275831445896958607E-31, 1.000000000000000000, 1.224646799147353454E-16 ) ) ;
#268 = CARTESIAN_POINT ( 'NONE',  ( 1.117274028429802674E-13, -3.918869757271530263E-15, 32.00000000000000000 ) ) ;
#269 = EDGE_LOOP ( 'NONE', ( #132 ) ) ;
#270 = ORIENTED_EDGE ( 'NONE', *, *, #60, .T. ) ;
#271 = DIRECTION ( 'NONE',  ( 0.0000000000000000000, 1.000000000000000000, 0.0000000000000000000 ) ) ;
#272 = EDGE_LOOP ( 'NONE', ( #180 ) ) ;
#273 = CC_DESIGN_PERSON_AND_ORGANIZATION_ASSIGNMENT ( #21, #98, ( #61 ) ) ;
#274 = CARTESIAN_POINT ( 'NONE',  ( 1.110291065752116407E-13, 0.9999999999999965583, 31.80000000000000071 ) ) ;
#275 = ORIENTED_EDGE ( 'NONE', *, *, #258, .F. ) ;
#276 = VERTEX_POINT ( 'NONE', #119 ) ;
#277 = CIRCLE ( 'NONE', #2, 0.3109999999999996101 ) ;
#278 = DIRECTION ( 'NONE',  ( 1.000000000000000000, 0.0000000000000000000, 0.0000000000000000000 ) ) ;
#279 = CARTESIAN_POINT ( 'NONE',  ( 1.396592535537253342E-14, 0.3109999999999995546, 4.000000000000000000 ) ) ;
#280 = PERSON_AND_ORGANIZATION_ROLE ( 'design_owner' ) ;
#281 = CIRCLE ( 'NONE', #165, 0.1899999999999999745 ) ;
#282 = ADVANCED_FACE ( 'NONE', ( #15 ), #230, .F. ) ;
#283 = PERSON_AND_ORGANIZATION ( #186, #17 ) ;
ENDSEC;
END-ISO-10303-21;
