ISO-10303-21;
HEADER;
FILE_DESCRIPTION (( 'STEP AP203' ),
    '1' );
FILE_NAME ('969474.step',
    '2021-12-16T13:16:19',
    ( '' ),
    ( '' ),
    'SwSTEP 2.0',
    'SolidWorks 2019',
    '' );
FILE_SCHEMA (( 'CONFIG_CONTROL_DESIGN' ));
ENDSEC;

DATA;
#1 = APPROVAL_STATUS ( 'not_yet_approved' ) ;
#2 = DIRECTION ( 'NONE',  ( -3.491481338843133355E-15, 1.224646799147353207E-16, -1.000000000000000000 ) ) ;
#3 = DIRECTION ( 'NONE',  ( -3.491481338843133355E-15, 1.224646799147353207E-16, -1.000000000000000000 ) ) ;
#4 = PERSON_AND_ORGANIZATION ( #221, #226 ) ;
#5 = FACE_OUTER_BOUND ( 'NONE', #143, .T. ) ;
#6 = CARTESIAN_POINT ( 'NONE',  ( 0.0000000000000000000, 0.0000000000000000000, 0.0000000000000000000 ) ) ;
#7 = AXIS2_PLACEMENT_3D ( 'NONE', #33, #15, #121 ) ;
#8 = DIRECTION ( 'NONE',  ( 3.491481338843133355E-15, -1.224646799147353207E-16, 1.000000000000000000 ) ) ;
#9 = CYLINDRICAL_SURFACE ( 'NONE', #155, 0.2595000000000000639 ) ;
#10 = CLOSED_SHELL ( 'NONE', ( #71, #63, #193, #232 ) ) ;
#11 = AXIS2_PLACEMENT_3D ( 'NONE', #158, #114, #131 ) ;
#12 = DESIGN_CONTEXT ( 'detailed design', #91, 'design' ) ;
#13 = ORIENTED_EDGE ( 'NONE', *, *, #103, .F. ) ;
#14 = FACE_OUTER_BOUND ( 'NONE', #278, .T. ) ;
#15 = DIRECTION ( 'NONE',  ( 3.491481338843133355E-15, -1.224646799147353207E-16, 1.000000000000000000 ) ) ;
#16 = CARTESIAN_POINT ( 'NONE',  ( 1.117274028429802674E-13, -3.918869757271530263E-15, 32.00000000000000000 ) ) ;
#17 = DIRECTION ( 'NONE',  ( 0.0000000000000000000, 1.000000000000000000, 0.0000000000000000000 ) ) ;
#18 = COORDINATED_UNIVERSAL_TIME_OFFSET ( 1, 0, .AHEAD. ) ;
#19 = DATE_AND_TIME ( #215, #128 ) ;
#20 = AXIS2_PLACEMENT_3D ( 'NONE', #180, #8, #261 ) ;
#21 = EDGE_CURVE ( 'NONE', #106, #106, #272, .T. ) ;
#22 = CARTESIAN_POINT ( 'NONE',  ( 0.0000000000000000000, 0.0000000000000000000, 0.0000000000000000000 ) ) ;
#23 = APPROVAL_ROLE ( '' ) ;
#24 = FACE_OUTER_BOUND ( 'NONE', #248, .T. ) ;
#25 = PERSON_AND_ORGANIZATION ( #221, #226 ) ;
#26 = FACE_OUTER_BOUND ( 'NONE', #236, .T. ) ;
#27 = EDGE_CURVE ( 'NONE', #227, #227, #220, .T. ) ;
#28 = FACE_OUTER_BOUND ( 'NONE', #188, .T. ) ;
#29 = AXIS2_PLACEMENT_3D ( 'NONE', #43, #194, #84 ) ;
#30 = APPROVAL_PERSON_ORGANIZATION ( #99, #35, #40 ) ;
#31 = DIRECTION ( 'NONE',  ( -3.491481338843133355E-15, 1.224646799147353207E-16, -1.000000000000000000 ) ) ;
#32 = CARTESIAN_POINT ( 'NONE',  ( 1.117274028429802674E-13, -3.918869757271530263E-15, 32.00000000000000000 ) ) ;
#33 = CARTESIAN_POINT ( 'NONE',  ( 2.419390525657988683E-14, -8.486079619478115363E-16, 6.929409871798509535 ) ) ;
#34 = ORIENTED_EDGE ( 'NONE', *, *, #201, .T. ) ;
#35 = APPROVAL ( #1, 'UNSPECIFIED' ) ;
#36 = CARTESIAN_POINT ( 'NONE',  ( 2.419390525657988683E-14, -8.486079619478115363E-16, 6.929409871798509535 ) ) ;
#37 = AXIS2_PLACEMENT_3D ( 'NONE', #136, #165, #80 ) ;
#38 = EDGE_LOOP ( 'NONE', ( #41 ) ) ;
#39 = DIRECTION ( 'NONE',  ( -3.491481338843133355E-15, 1.224646799147353207E-16, -1.000000000000000000 ) ) ;
#40 = APPROVAL_ROLE ( '' ) ;
#41 = ORIENTED_EDGE ( 'NONE', *, *, #175, .F. ) ;
#42 = CC_DESIGN_PERSON_AND_ORGANIZATION_ASSIGNMENT ( #126, #255, ( #97 ) ) ;
#43 = CARTESIAN_POINT ( 'NONE',  ( 1.296523382149027299E-15, -4.547591855365902546E-17, 0.3713390553531118465 ) ) ;
#44 = CC_DESIGN_APPROVAL ( #207, ( #97 ) ) ;
#45 = DATE_AND_TIME ( #172, #181 ) ;
#46 = VERTEX_POINT ( 'NONE', #222 ) ;
#47 = COORDINATED_UNIVERSAL_TIME_OFFSET ( 1, 0, .AHEAD. ) ;
#48 = DIRECTION ( 'NONE',  ( 0.0000000000000000000, 1.000000000000000000, 0.0000000000000000000 ) ) ;
#49 = VERTEX_POINT ( 'NONE', #268 ) ;
#50 = APPLICATION_PROTOCOL_DEFINITION ( 'international standard', 'config_control_design', 1994, #133 ) ;
#51 = CONICAL_SURFACE ( 'NONE', #82, 0.8000000000000002665, 0.7853981633974518317 ) ;
#52 = ADVANCED_BREP_SHAPE_REPRESENTATION ( '969474', ( #276, #183, #242 ), #134 ) ;
#53 = CARTESIAN_POINT ( 'NONE',  ( 1.476690442231316282E-14, 0.2765370868554657413, 4.229409522551257794 ) ) ;
#54 = LOCAL_TIME ( 14, 16, 19.00000000000000000, #18 ) ;
#55 = ORIENTED_EDGE ( 'NONE', *, *, #130, .F. ) ;
#56 = FACE_OUTER_BOUND ( 'NONE', #93, .T. ) ;
#57 = CARTESIAN_POINT ( 'NONE',  ( 1.431507348925684360E-14, -5.421010862427522170E-16, 4.099999999999999645 ) ) ;
#58 = APPLICATION_PROTOCOL_DEFINITION ( 'international standard', 'config_control_design', 1994, #91 ) ;
#59 = TOROIDAL_SURFACE ( 'NONE', #78, 0.7595000000000001750, 0.4999999999999996669 ) ;
#60 = DIRECTION ( 'NONE',  ( -3.491481338843133355E-15, 1.224646799147353207E-16, -1.000000000000000000 ) ) ;
#61 = DIRECTION ( 'NONE',  ( 0.0000000000000000000, 1.000000000000000000, 0.0000000000000000000 ) ) ;
#62 = APPROVAL_STATUS ( 'not_yet_approved' ) ;
#63 = ADVANCED_FACE ( 'NONE', ( #171, #239 ), #166, .T. ) ;
#64 = PERSON_AND_ORGANIZATION_ROLE ( 'classification_officer' ) ;
#65 = PRODUCT ( '969474', '969474', '', ( #267 ) ) ;
#66 = PLANE ( 'NONE',  #144 ) ;
#67 = FACE_BOUND ( 'NONE', #150, .T. ) ;
#68 = APPROVAL_DATE_TIME ( #174, #207 ) ;
#69 = AXIS2_PLACEMENT_3D ( 'NONE', #189, #119, #141 ) ;
#70 = DIRECTION ( 'NONE',  ( -7.421695354093403803E-31, -1.000000000000000000, -2.089021526947024671E-16 ) ) ;
#71 = ADVANCED_FACE ( 'NONE', ( #56 ), #167, .F. ) ;
#72 = CARTESIAN_POINT ( 'NONE',  ( 1.296523382149027496E-15, 0.2594999999999996199, 0.3713390553531119020 ) ) ;
#73 = ORIENTED_EDGE ( 'NONE', *, *, #74, .T. ) ;
#74 = EDGE_CURVE ( 'NONE', #260, #260, #225, .T. ) ;
#75 = UNCERTAINTY_MEASURE_WITH_UNIT (LENGTH_MEASURE( 1.000000000000000082E-05 ), #247, 'distance_accuracy_value', 'NONE');
#76 = PERSON_AND_ORGANIZATION_ROLE ( 'design_owner' ) ;
#77 = ORIENTED_EDGE ( 'NONE', *, *, #130, .T. ) ;
#78 = AXIS2_PLACEMENT_3D ( 'NONE', #57, #142, #277 ) ;
#79 = AXIS2_PLACEMENT_3D ( 'NONE', #22, #3, #195 ) ;
#80 = DIRECTION ( 'NONE',  ( 0.0000000000000000000, 1.000000000000000000, 0.0000000000000000000 ) ) ;
#81 = APPROVAL ( #258, 'UNSPECIFIED' ) ;
#82 = AXIS2_PLACEMENT_3D ( 'NONE', #32, #31, #48 ) ;
#83 = DATE_TIME_ROLE ( 'creation_date' ) ;
#84 = DIRECTION ( 'NONE',  ( 7.421695354093403803E-31, 1.000000000000000000, 2.089021526947024671E-16 ) ) ;
#85 = DATE_AND_TIME ( #200, #263 ) ;
#86 = APPROVAL_DATE_TIME ( #104, #35 ) ;
#87 = DIRECTION ( 'NONE',  ( 0.0000000000000000000, 1.000000000000000000, 0.0000000000000000000 ) ) ;
#88 = PERSON_AND_ORGANIZATION_ROLE ( 'creator' ) ;
#89 = CARTESIAN_POINT ( 'NONE',  ( 1.222018468595096674E-14, -4.286263797015736595E-16, 3.500000000000000000 ) ) ;
#90 = CC_DESIGN_SECURITY_CLASSIFICATION ( #176, ( #97 ) ) ;
#91 = APPLICATION_CONTEXT ( 'configuration controlled 3d designs of mechanical parts and assemblies' ) ;
#92 = EDGE_LOOP ( 'NONE', ( #275 ) ) ;
#93 = EDGE_LOOP ( 'NONE', ( #77 ) ) ;
#94 = VERTEX_POINT ( 'NONE', #271 ) ;
#95 = EDGE_LOOP ( 'NONE', ( #55 ) ) ;
#96 = CLOSED_SHELL ( 'NONE', ( #224, #256, #125, #118, #202, #228, #186 ) ) ;
#97 = PRODUCT_DEFINITION_FORMATION_WITH_SPECIFIED_SOURCE ( 'ANY', '', #65, .NOT_KNOWN. ) ;
#98 = EDGE_LOOP ( 'NONE', ( #13 ) ) ;
#99 = PERSON_AND_ORGANIZATION ( #221, #226 ) ;
#100 = DATE_TIME_ROLE ( 'classification_date' ) ;
#101 = CIRCLE ( 'NONE', #102, 0.2765370868554662964 ) ;
#102 = AXIS2_PLACEMENT_3D ( 'NONE', #129, #2, #87 ) ;
#103 = EDGE_CURVE ( 'NONE', #157, #157, #115, .T. ) ;
#104 = DATE_AND_TIME ( #254, #54 ) ;
#105 = CYLINDRICAL_SURFACE ( 'NONE', #79, 0.2594999999999998419 ) ;
#106 = VERTEX_POINT ( 'NONE', #264 ) ;
#107 = CARTESIAN_POINT ( 'NONE',  ( 0.0000000000000000000, 0.0000000000000000000, 0.0000000000000000000 ) ) ;
#108 = EDGE_LOOP ( 'NONE', ( #214 ) ) ;
#109 = AXIS2_PLACEMENT_3D ( 'NONE', #107, #156, #135 ) ;
#110 = CC_DESIGN_APPROVAL ( #35, ( #176 ) ) ;
#111 = DIRECTION ( 'NONE',  ( 4.275831445896959482E-31, 1.000000000000000000, 1.224646799147353207E-16 ) ) ;
#112 = FACE_OUTER_BOUND ( 'NONE', #205, .T. ) ;
#113 = PERSON_AND_ORGANIZATION ( #221, #226 ) ;
#114 = DIRECTION ( 'NONE',  ( 3.491481338843133355E-15, -1.224646799147353207E-16, 1.000000000000000000 ) ) ;
#115 = CIRCLE ( 'NONE', #149, 0.9999999999999970024 ) ;
#116 = FACE_OUTER_BOUND ( 'NONE', #185, .T. ) ;
#117 = VERTEX_POINT ( 'NONE', #53 ) ;
#118 = ADVANCED_FACE ( 'NONE', ( #209, #252 ), #249, .T. ) ;
#119 = DIRECTION ( 'NONE',  ( 3.491481338843133355E-15, -1.224646799147353207E-16, 1.000000000000000000 ) ) ;
#120 = DIRECTION ( 'NONE',  ( -3.491481338843133355E-15, 1.224646799147353207E-16, -1.000000000000000000 ) ) ;
#121 = DIRECTION ( 'NONE',  ( 0.0000000000000000000, -1.000000000000000000, 0.0000000000000000000 ) ) ;
#122 = DIRECTION ( 'NONE',  ( -3.491481338843133355E-15, 1.224646799147353207E-16, -1.000000000000000000 ) ) ;
#123 = ORIENTED_EDGE ( 'NONE', *, *, #182, .T. ) ;
#124 = COORDINATED_UNIVERSAL_TIME_OFFSET ( 1, 0, .AHEAD. ) ;
#125 = ADVANCED_FACE ( 'NONE', ( #14, #116 ), #59, .F. ) ;
#126 = PERSON_AND_ORGANIZATION ( #221, #226 ) ;
#127 = CIRCLE ( 'NONE', #280, 0.1600000000000000033 ) ;
#128 = LOCAL_TIME ( 14, 16, 19.00000000000000000, #124 ) ;
#129 = CARTESIAN_POINT ( 'NONE',  ( 1.476690442231316282E-14, -5.179532834075732951E-16, 4.229409522551257794 ) ) ;
#130 = EDGE_CURVE ( 'NONE', #46, #46, #127, .T. ) ;
#131 = DIRECTION ( 'NONE',  ( -4.275831445896958607E-31, -1.000000000000000000, -1.224646799147353207E-16 ) ) ;
#132 = CYLINDRICAL_SURFACE ( 'NONE', #109, 0.9999999999999986677 ) ;
#133 = APPLICATION_CONTEXT ( 'configuration controlled 3d designs of mechanical parts and assemblies' ) ;
#134 =( GEOMETRIC_REPRESENTATION_CONTEXT ( 3 ) GLOBAL_UNCERTAINTY_ASSIGNED_CONTEXT ( ( #75 ) ) GLOBAL_UNIT_ASSIGNED_CONTEXT ( ( #247, #140, #184 ) ) REPRESENTATION_CONTEXT ( 'NONE', 'WORKASPACE' ) );
#135 = DIRECTION ( 'NONE',  ( 4.275831445896959482E-31, 1.000000000000000000, 1.224646799147353454E-16 ) ) ;
#136 = CARTESIAN_POINT ( 'NONE',  ( 1.431507348925684360E-14, -5.021051876504147385E-16, 4.099999999999999645 ) ) ;
#137 = CC_DESIGN_PERSON_AND_ORGANIZATION_ASSIGNMENT ( #113, #76, ( #65 ) ) ;
#138 = LOCAL_TIME ( 14, 16, 19.00000000000000000, #47 ) ;
#139 = ORIENTED_EDGE ( 'NONE', *, *, #74, .F. ) ;
#140 =( NAMED_UNIT ( * ) PLANE_ANGLE_UNIT ( ) SI_UNIT ( $, .RADIAN. ) );
#141 = DIRECTION ( 'NONE',  ( -4.275831445896958607E-31, -1.000000000000000000, -1.224646799147353207E-16 ) ) ;
#142 = DIRECTION ( 'NONE',  ( -3.491481338843133355E-15, 1.224646799147353207E-16, -1.000000000000000000 ) ) ;
#143 = EDGE_LOOP ( 'NONE', ( #34 ) ) ;
#144 = AXIS2_PLACEMENT_3D ( 'NONE', #169, #146, #213 ) ;
#145 = EDGE_CURVE ( 'NONE', #49, #49, #154, .T. ) ;
#146 = DIRECTION ( 'NONE',  ( -3.491481338843133355E-15, 1.224646799147353207E-16, -1.000000000000000000 ) ) ;
#147 = PRODUCT_DEFINITION ( 'UNKNOWN', '', #97, #12 ) ;
#148 = DIRECTION ( 'NONE',  ( 0.0000000000000000000, 1.000000000000000000, 0.0000000000000000000 ) ) ;
#149 = AXIS2_PLACEMENT_3D ( 'NONE', #36, #120, #163 ) ;
#150 = EDGE_LOOP ( 'NONE', ( #210 ) ) ;
#151 = CC_DESIGN_PERSON_AND_ORGANIZATION_ASSIGNMENT ( #219, #64, ( #176 ) ) ;
#152 = FACE_OUTER_BOUND ( 'NONE', #98, .T. ) ;
#153 = CALENDAR_DATE ( 2021, 16, 12 ) ;
#154 = CIRCLE ( 'NONE', #229, 0.8000000000000002665 ) ;
#155 = AXIS2_PLACEMENT_3D ( 'NONE', #6, #203, #111 ) ;
#156 = DIRECTION ( 'NONE',  ( -3.491481338843133355E-15, 1.224646799147353207E-16, -1.000000000000000000 ) ) ;
#157 = VERTEX_POINT ( 'NONE', #241 ) ;
#158 = CARTESIAN_POINT ( 'NONE',  ( 1.222018468595096674E-14, 1.945938318003754198E-33, 3.500000000000000000 ) ) ;
#159 = APPROVAL_PERSON_ORGANIZATION ( #170, #207, #243 ) ;
#160 = CC_DESIGN_PERSON_AND_ORGANIZATION_ASSIGNMENT ( #4, #88, ( #147 ) ) ;
#161 = EDGE_LOOP ( 'NONE', ( #179 ) ) ;
#162 = PRODUCT_RELATED_PRODUCT_CATEGORY ( 'detail', '', ( #65 ) ) ;
#163 = DIRECTION ( 'NONE',  ( 0.0000000000000000000, 1.000000000000000000, 0.0000000000000000000 ) ) ;
#164 = ORIENTED_EDGE ( 'NONE', *, *, #182, .F. ) ;
#165 = DIRECTION ( 'NONE',  ( -3.491481338843133355E-15, 1.224646799147353207E-16, -1.000000000000000000 ) ) ;
#166 = CONICAL_SURFACE ( 'NONE', #190, 0.2594999999999996754, 0.2617993877991428575 ) ;
#167 = PLANE ( 'NONE',  #69 ) ;
#168 = ORIENTED_EDGE ( 'NONE', *, *, #21, .F. ) ;
#169 = CARTESIAN_POINT ( 'NONE',  ( 1.117274028429802674E-13, 5.999039130647374325E-33, 32.00000000000000000 ) ) ;
#170 = PERSON_AND_ORGANIZATION ( #221, #226 ) ;
#171 = FACE_BOUND ( 'NONE', #95, .T. ) ;
#172 = CALENDAR_DATE ( 2021, 16, 12 ) ;
#173 = CARTESIAN_POINT ( 'NONE',  ( 1.222018468595096674E-14, -4.286263797015736595E-16, 3.500000000000000000 ) ) ;
#174 = DATE_AND_TIME ( #153, #138 ) ;
#175 = EDGE_CURVE ( 'NONE', #117, #117, #101, .T. ) ;
#176 = SECURITY_CLASSIFICATION ( '', '', #253 ) ;
#177 = CARTESIAN_POINT ( 'NONE',  ( 0.0000000000000000000, 0.0000000000000000000, 0.0000000000000000000 ) ) ;
#178 = PLANE ( 'NONE',  #11 ) ;
#179 = ORIENTED_EDGE ( 'NONE', *, *, #27, .F. ) ;
#180 = CARTESIAN_POINT ( 'NONE',  ( 1.222018468595096674E-14, 1.945938318003754198E-33, 3.500000000000000000 ) ) ;
#181 = LOCAL_TIME ( 14, 16, 19.00000000000000000, #217 ) ;
#182 = EDGE_CURVE ( 'NONE', #250, #250, #191, .T. ) ;
#183 = MANIFOLD_SOLID_BREP ( 'Corps-Déplacer/Copier1[2]', #10 ) ;
#184 =( NAMED_UNIT ( * ) SI_UNIT ( $, .STERADIAN. ) SOLID_ANGLE_UNIT ( ) );
#185 = EDGE_LOOP ( 'NONE', ( #223 ) ) ;
#186 = ADVANCED_FACE ( 'NONE', ( #238 ), #66, .F. ) ;
#187 = CARTESIAN_POINT ( 'NONE',  ( -4.475410530456182305E-32, 1.569762702157110167E-33, -1.281808520832324836E-17 ) ) ;
#188 = EDGE_LOOP ( 'NONE', ( #73 ) ) ;
#189 = CARTESIAN_POINT ( 'NONE',  ( -2.237705265228091152E-32, 7.848813510785550837E-34, -6.409042604161624178E-18 ) ) ;
#190 = AXIS2_PLACEMENT_3D ( 'NONE', #218, #262, #70 ) ;
#191 = CIRCLE ( 'NONE', #274, 1.000000000000000444 ) ;
#192 = FACE_OUTER_BOUND ( 'NONE', #161, .T. ) ;
#193 = ADVANCED_FACE ( 'NONE', ( #192, #24 ), #105, .T. ) ;
#194 = DIRECTION ( 'NONE',  ( -3.491481338843133355E-15, 1.224646799147353207E-16, -1.000000000000000000 ) ) ;
#195 = DIRECTION ( 'NONE',  ( 4.275831445896959482E-31, 1.000000000000000000, 1.224646799147353207E-16 ) ) ;
#196 = PERSON_AND_ORGANIZATION ( #221, #226 ) ;
#197 = PRODUCT_DEFINITION_SHAPE ( 'NONE', 'NONE',  #147 ) ;
#198 = DIRECTION ( 'NONE',  ( 0.0000000000000000000, 1.000000000000000000, 0.0000000000000000000 ) ) ;
#199 = COORDINATED_UNIVERSAL_TIME_OFFSET ( 1, 0, .AHEAD. ) ;
#200 = CALENDAR_DATE ( 2021, 16, 12 ) ;
#201 = EDGE_CURVE ( 'NONE', #94, #94, #230, .T. ) ;
#202 = ADVANCED_FACE ( 'NONE', ( #152, #246 ), #132, .T. ) ;
#203 = DIRECTION ( 'NONE',  ( -3.491481338843133355E-15, 1.224646799147353207E-16, -1.000000000000000000 ) ) ;
#204 = PLANE ( 'NONE',  #20 ) ;
#205 = EDGE_LOOP ( 'NONE', ( #168 ) ) ;
#206 = DIRECTION ( 'NONE',  ( 1.000000000000000000, 0.0000000000000000000, 0.0000000000000000000 ) ) ;
#207 = APPROVAL ( #62, 'UNSPECIFIED' ) ;
#208 = CARTESIAN_POINT ( 'NONE',  ( 1.110291065752116407E-13, 0.9999999999999965583, 31.80000000000000071 ) ) ;
#209 = FACE_BOUND ( 'NONE', #38, .T. ) ;
#210 = ORIENTED_EDGE ( 'NONE', *, *, #145, .T. ) ;
#211 = DIRECTION ( 'NONE',  ( 4.275831445896958607E-31, 1.000000000000000000, 1.224646799147353207E-16 ) ) ;
#212 = SHAPE_DEFINITION_REPRESENTATION ( #197, #52 ) ;
#213 = DIRECTION ( 'NONE',  ( 4.275831445896958607E-31, 1.000000000000000000, 1.224646799147353207E-16 ) ) ;
#214 = ORIENTED_EDGE ( 'NONE', *, *, #103, .T. ) ;
#215 = CALENDAR_DATE ( 2021, 16, 12 ) ;
#216 = CC_DESIGN_APPROVAL ( #81, ( #147 ) ) ;
#217 = COORDINATED_UNIVERSAL_TIME_OFFSET ( 1, 0, .AHEAD. ) ;
#218 = CARTESIAN_POINT ( 'NONE',  ( 1.296523382149027299E-15, -4.547591855365902546E-17, 0.3713390553531118465 ) ) ;
#219 = PERSON_AND_ORGANIZATION ( #221, #226 ) ;
#220 = CIRCLE ( 'NONE', #29, 0.2594999999999996754 ) ;
#221 = PERSON ( 'UNSPECIFIED', 'UNSPECIFIED', 'UNSPECIFIED', ('UNSPECIFIED'), ('UNSPECIFIED'), ('UNSPECIFIED') ) ;
#222 = CARTESIAN_POINT ( 'NONE',  ( 2.365919782978951696E-32, 0.1600000000000000033, 6.776263578034402713E-18 ) ) ;
#223 = ORIENTED_EDGE ( 'NONE', *, *, #175, .T. ) ;
#224 = ADVANCED_FACE ( 'NONE', ( #5 ), #204, .F. ) ;
#225 = CIRCLE ( 'NONE', #37, 0.2595000000000001195 ) ;
#226 = ORGANIZATION ( 'UNSPECIFIED', 'UNSPECIFIED', '' ) ;
#227 = VERTEX_POINT ( 'NONE', #72 ) ;
#228 = ADVANCED_FACE ( 'NONE', ( #26, #67 ), #51, .T. ) ;
#229 = AXIS2_PLACEMENT_3D ( 'NONE', #16, #122, #198 ) ;
#230 = CIRCLE ( 'NONE', #281, 0.2595000000000000639 ) ;
#231 = ORIENTED_EDGE ( 'NONE', *, *, #145, .F. ) ;
#232 = ADVANCED_FACE ( 'NONE', ( #112 ), #178, .T. ) ;
#233 = ORIENTED_EDGE ( 'NONE', *, *, #21, .T. ) ;
#234 = AXIS2_PLACEMENT_3D ( 'NONE', #89, #257, #61 ) ;
#235 = PERSON_AND_ORGANIZATION_ROLE ( 'design_supplier' ) ;
#236 = EDGE_LOOP ( 'NONE', ( #164 ) ) ;
#237 = CC_DESIGN_DATE_AND_TIME_ASSIGNMENT ( #45, #100, ( #176 ) ) ;
#238 = FACE_OUTER_BOUND ( 'NONE', #283, .T. ) ;
#239 = FACE_OUTER_BOUND ( 'NONE', #279, .T. ) ;
#240 = APPROVAL_DATE_TIME ( #85, #81 ) ;
#241 = CARTESIAN_POINT ( 'NONE',  ( 2.419390525657988683E-14, 0.9999999999999961142, 6.929409871798509535 ) ) ;
#242 = AXIS2_PLACEMENT_3D ( 'NONE', #177, #244, #206 ) ;
#243 = APPROVAL_ROLE ( '' ) ;
#244 = DIRECTION ( 'NONE',  ( 0.0000000000000000000, 0.0000000000000000000, 1.000000000000000000 ) ) ;
#245 = FACE_OUTER_BOUND ( 'NONE', #92, .T. ) ;
#246 = FACE_OUTER_BOUND ( 'NONE', #270, .T. ) ;
#247 =( LENGTH_UNIT ( ) NAMED_UNIT ( * ) SI_UNIT ( .MILLI., .METRE. ) );
#248 = EDGE_LOOP ( 'NONE', ( #233 ) ) ;
#249 = CONICAL_SURFACE ( 'NONE', #7, 0.9999999999999970024, 0.2617993877991426355 ) ;
#250 = VERTEX_POINT ( 'NONE', #208 ) ;
#251 = CC_DESIGN_DATE_AND_TIME_ASSIGNMENT ( #19, #83, ( #147 ) ) ;
#252 = FACE_OUTER_BOUND ( 'NONE', #108, .T. ) ;
#253 = SECURITY_CLASSIFICATION_LEVEL ( 'unclassified' ) ;
#254 = CALENDAR_DATE ( 2021, 16, 12 ) ;
#255 = PERSON_AND_ORGANIZATION_ROLE ( 'creator' ) ;
#256 = ADVANCED_FACE ( 'NONE', ( #245, #28 ), #9, .T. ) ;
#257 = DIRECTION ( 'NONE',  ( -3.491481338843133355E-15, 1.224646799147353207E-16, -1.000000000000000000 ) ) ;
#258 = APPROVAL_STATUS ( 'not_yet_approved' ) ;
#259 = DIRECTION ( 'NONE',  ( -3.491481338843133355E-15, 1.224646799147353207E-16, -1.000000000000000000 ) ) ;
#260 = VERTEX_POINT ( 'NONE', #266 ) ;
#261 = DIRECTION ( 'NONE',  ( -4.275831445896958607E-31, -1.000000000000000000, -1.224646799147353207E-16 ) ) ;
#262 = DIRECTION ( 'NONE',  ( 3.491481338843133355E-15, -1.224646799147353207E-16, 1.000000000000000000 ) ) ;
#263 = LOCAL_TIME ( 14, 16, 19.00000000000000000, #199 ) ;
#264 = CARTESIAN_POINT ( 'NONE',  ( 1.222018468595096674E-14, 0.2594999999999996199, 3.500000000000000000 ) ) ;
#265 = ORIENTED_EDGE ( 'NONE', *, *, #27, .T. ) ;
#266 = CARTESIAN_POINT ( 'NONE',  ( 1.431507348925684360E-14, 0.2594999999999996199, 4.099999999999999645 ) ) ;
#267 = MECHANICAL_CONTEXT ( 'NONE', #133, 'mechanical' ) ;
#268 = CARTESIAN_POINT ( 'NONE',  ( 1.117274028429802674E-13, 0.7999999999999963807, 32.00000000000000000 ) ) ;
#269 = CC_DESIGN_PERSON_AND_ORGANIZATION_ASSIGNMENT ( #196, #235, ( #97 ) ) ;
#270 = EDGE_LOOP ( 'NONE', ( #123 ) ) ;
#271 = CARTESIAN_POINT ( 'NONE',  ( 1.222018468595096674E-14, 0.2594999999999996199, 3.500000000000000000 ) ) ;
#272 = CIRCLE ( 'NONE', #234, 0.2595000000000000639 ) ;
#273 = APPROVAL_PERSON_ORGANIZATION ( #25, #81, #23 ) ;
#274 = AXIS2_PLACEMENT_3D ( 'NONE', #282, #259, #148 ) ;
#275 = ORIENTED_EDGE ( 'NONE', *, *, #201, .F. ) ;
#276 = MANIFOLD_SOLID_BREP ( 'Corps-Déplacer/Copier1[1]', #96 ) ;
#277 = DIRECTION ( 'NONE',  ( 4.275831445896958607E-31, 1.000000000000000000, 1.224646799147353207E-16 ) ) ;
#278 = EDGE_LOOP ( 'NONE', ( #139 ) ) ;
#279 = EDGE_LOOP ( 'NONE', ( #265 ) ) ;
#280 = AXIS2_PLACEMENT_3D ( 'NONE', #187, #39, #211 ) ;
#281 = AXIS2_PLACEMENT_3D ( 'NONE', #173, #60, #17 ) ;
#282 = CARTESIAN_POINT ( 'NONE',  ( 1.110291065752116407E-13, -3.894376821288583549E-15, 31.80000000000000071 ) ) ;
#283 = EDGE_LOOP ( 'NONE', ( #231 ) ) ;
ENDSEC;
END-ISO-10303-21;
