ISO-10303-21;
HEADER;
FILE_DESCRIPTION (( 'STEP AP203' ),
    '1' );
FILE_NAME ('969461.step',
    '2021-11-30T15:17:29',
    ( '' ),
    ( '' ),
    'SwSTEP 2.0',
    'SolidWorks 2019',
    '' );
FILE_SCHEMA (( 'CONFIG_CONTROL_DESIGN' ));
ENDSEC;

DATA;
#1 = ORIENTED_EDGE ( 'NONE', *, *, #131, .T. ) ;
#2 = PLANE ( 'NONE',  #188 ) ;
#3 = APPROVAL ( #84, 'UNSPECIFIED' ) ;
#4 = DIRECTION ( 'NONE',  ( 3.491481338843133355E-15, -1.224646799147353207E-16, 1.000000000000000000 ) ) ;
#5 = ORIENTED_EDGE ( 'NONE', *, *, #38, .T. ) ;
#6 = ORIENTED_EDGE ( 'NONE', *, *, #222, .F. ) ;
#7 = PERSON_AND_ORGANIZATION ( #195, #207 ) ;
#8 = AXIS2_PLACEMENT_3D ( 'NONE', #190, #61, #19 ) ;
#9 = DIRECTION ( 'NONE',  ( 0.0000000000000000000, 1.000000000000000000, 0.0000000000000000000 ) ) ;
#10 = ORIENTED_EDGE ( 'NONE', *, *, #152, .T. ) ;
#11 = SHAPE_DEFINITION_REPRESENTATION ( #163, #111 ) ;
#12 = LOCAL_TIME ( 16, 17, 29.00000000000000000, #157 ) ;
#13 = APPLICATION_PROTOCOL_DEFINITION ( 'international standard', 'config_control_design', 1994, #120 ) ;
#14 = PRODUCT_DEFINITION ( 'UNKNOWN', '', #224, #31 ) ;
#15 = VERTEX_POINT ( 'NONE', #164 ) ;
#16 = COORDINATED_UNIVERSAL_TIME_OFFSET ( 1, 0, .AHEAD. ) ;
#17 = DIRECTION ( 'NONE',  ( -3.491481338843133355E-15, 1.224646799147353207E-16, -1.000000000000000000 ) ) ;
#18 = AXIS2_PLACEMENT_3D ( 'NONE', #189, #153, #22 ) ;
#19 = DIRECTION ( 'NONE',  ( 0.0000000000000000000, 1.000000000000000000, 0.0000000000000000000 ) ) ;
#20 = EDGE_LOOP ( 'NONE', ( #26 ) ) ;
#21 = AXIS2_PLACEMENT_3D ( 'NONE', #145, #126, #106 ) ;
#22 = DIRECTION ( 'NONE',  ( 0.0000000000000000000, 1.000000000000000000, 0.0000000000000000000 ) ) ;
#23 = SECURITY_CLASSIFICATION_LEVEL ( 'unclassified' ) ;
#24 = FACE_OUTER_BOUND ( 'NONE', #118, .T. ) ;
#25 = DATE_TIME_ROLE ( 'classification_date' ) ;
#26 = ORIENTED_EDGE ( 'NONE', *, *, #152, .F. ) ;
#27 = AXIS2_PLACEMENT_3D ( 'NONE', #218, #121, #66 ) ;
#28 = PERSON_AND_ORGANIZATION ( #195, #207 ) ;
#29 = ADVANCED_FACE ( 'NONE', ( #24, #155 ), #76, .T. ) ;
#30 = CARTESIAN_POINT ( 'NONE',  ( 1.047444401652939809E-15, 3.254999999999997673, 0.2999999999999999889 ) ) ;
#31 = DESIGN_CONTEXT ( 'detailed design', #120, 'design' ) ;
#32 = CYLINDRICAL_SURFACE ( 'NONE', #21, 3.254999999999998561 ) ;
#33 = VERTEX_POINT ( 'NONE', #101 ) ;
#34 = PERSON_AND_ORGANIZATION ( #195, #207 ) ;
#35 = APPROVAL_PERSON_ORGANIZATION ( #7, #171, #115 ) ;
#36 = CARTESIAN_POINT ( 'NONE',  ( 7.681258945454893382E-14, 2.440859046282169452E-32, 22.00000000000000000 ) ) ;
#37 = FACE_OUTER_BOUND ( 'NONE', #176, .T. ) ;
#38 = EDGE_CURVE ( 'NONE', #198, #198, #219, .T. ) ;
#39 = DIRECTION ( 'NONE',  ( 0.0000000000000000000, 1.000000000000000000, 0.0000000000000000000 ) ) ;
#40 = DIRECTION ( 'NONE',  ( -3.491481338843133355E-15, 1.224646799147353207E-16, -1.000000000000000000 ) ) ;
#41 = ORIENTED_EDGE ( 'NONE', *, *, #79, .T. ) ;
#42 = PERSON_AND_ORGANIZATION_ROLE ( 'classification_officer' ) ;
#43 = AXIS2_PLACEMENT_3D ( 'NONE', #208, #225, #39 ) ;
#44 = ORIENTED_EDGE ( 'NONE', *, *, #143, .F. ) ;
#45 = COORDINATED_UNIVERSAL_TIME_OFFSET ( 1, 0, .AHEAD. ) ;
#46 = EDGE_LOOP ( 'NONE', ( #10 ) ) ;
#47 = AXIS2_PLACEMENT_3D ( 'NONE', #232, #193, #9 ) ;
#48 = AXIS2_PLACEMENT_3D ( 'NONE', #243, #205, #87 ) ;
#49 = CC_DESIGN_DATE_AND_TIME_ASSIGNMENT ( #85, #202, ( #14 ) ) ;
#50 = APPROVAL_DATE_TIME ( #180, #171 ) ;
#51 = DIRECTION ( 'NONE',  ( 1.000000000000000000, 0.0000000000000000000, 0.0000000000000000000 ) ) ;
#52 = CARTESIAN_POINT ( 'NONE',  ( 0.0000000000000000000, 0.0000000000000000000, 0.0000000000000000000 ) ) ;
#53 = CALENDAR_DATE ( 2021, 30, 11 ) ;
#54 = DIRECTION ( 'NONE',  ( -3.491481338843133355E-15, 1.224646799147353207E-16, -1.000000000000000000 ) ) ;
#55 = APPROVAL_PERSON_ORGANIZATION ( #34, #3, #117 ) ;
#56 = DIRECTION ( 'NONE',  ( -3.491481338843133355E-15, 1.224646799147353207E-16, -1.000000000000000000 ) ) ;
#57 = CC_DESIGN_PERSON_AND_ORGANIZATION_ASSIGNMENT ( #241, #124, ( #200 ) ) ;
#58 = DIRECTION ( 'NONE',  ( 3.491481338843133355E-15, -1.224646799147353207E-16, 1.000000000000000000 ) ) ;
#59 = FACE_OUTER_BOUND ( 'NONE', #178, .T. ) ;
#60 = DIRECTION ( 'NONE',  ( -4.141784826639219450E-31, -1.000000000000000000, -1.165808787618822693E-16 ) ) ;
#61 = DIRECTION ( 'NONE',  ( -3.491481338843133355E-15, 1.224646799147353207E-16, -1.000000000000000000 ) ) ;
#62 = APPLICATION_CONTEXT ( 'configuration controlled 3d designs of mechanical parts and assemblies' ) ;
#63 = AXIS2_PLACEMENT_3D ( 'NONE', #179, #132, #75 ) ;
#64 = ADVANCED_FACE ( 'NONE', ( #137, #215 ), #236, .T. ) ;
#65 =( LENGTH_UNIT ( ) NAMED_UNIT ( * ) SI_UNIT ( .MILLI., .METRE. ) );
#66 = DIRECTION ( 'NONE',  ( -4.275831445896958607E-31, -1.000000000000000000, -1.224646799147353207E-16 ) ) ;
#67 = PLANE ( 'NONE',  #27 ) ;
#68 = APPROVAL_STATUS ( 'not_yet_approved' ) ;
#69 = DATE_AND_TIME ( #144, #95 ) ;
#70 = ADVANCED_FACE ( 'NONE', ( #90 ), #2, .F. ) ;
#71 = PLANE ( 'NONE',  #98 ) ;
#72 = CONICAL_SURFACE ( 'NONE', #109, 3.254999999999997673, 0.7853981633974420618 ) ;
#73 = ORIENTED_EDGE ( 'NONE', *, *, #222, .T. ) ;
#74 = CC_DESIGN_APPROVAL ( #171, ( #80 ) ) ;
#75 = DIRECTION ( 'NONE',  ( 4.275831445896959482E-31, 1.000000000000000000, 1.224646799147353454E-16 ) ) ;
#76 = CYLINDRICAL_SURFACE ( 'NONE', #63, 2.499999999999997780 ) ;
#77 = CARTESIAN_POINT ( 'NONE',  ( 2.199633243471174140E-13, 1.499759782661846113E-32, 63.00000000000000000 ) ) ;
#78 = EDGE_LOOP ( 'NONE', ( #139 ) ) ;
#79 = EDGE_CURVE ( 'NONE', #234, #234, #182, .T. ) ;
#80 = SECURITY_CLASSIFICATION ( '', '', #23 ) ;
#81 = DIRECTION ( 'NONE',  ( 0.0000000000000000000, 1.000000000000000000, 0.0000000000000000000 ) ) ;
#82 = VERTEX_POINT ( 'NONE', #30 ) ;
#83 = VERTEX_POINT ( 'NONE', #123 ) ;
#84 = APPROVAL_STATUS ( 'not_yet_approved' ) ;
#85 = DATE_AND_TIME ( #53, #203 ) ;
#86 = CC_DESIGN_PERSON_AND_ORGANIZATION_ASSIGNMENT ( #142, #146, ( #14 ) ) ;
#87 = DIRECTION ( 'NONE',  ( 4.275831445896958607E-31, 1.000000000000000000, 1.224646799147353207E-16 ) ) ;
#88 = DIRECTION ( 'NONE',  ( 4.141784826639219450E-31, 1.000000000000000000, 1.165808787618822693E-16 ) ) ;
#89 = AXIS2_PLACEMENT_3D ( 'NONE', #168, #206, #88 ) ;
#90 = FACE_OUTER_BOUND ( 'NONE', #158, .T. ) ;
#91 = EDGE_LOOP ( 'NONE', ( #1 ) ) ;
#92 =( GEOMETRIC_REPRESENTATION_CONTEXT ( 3 ) GLOBAL_UNCERTAINTY_ASSIGNED_CONTEXT ( ( #235 ) ) GLOBAL_UNIT_ASSIGNED_CONTEXT ( ( #65, #141, #240 ) ) REPRESENTATION_CONTEXT ( 'NONE', 'WORKASPACE' ) );
#93 = FACE_BOUND ( 'NONE', #20, .T. ) ;
#94 = ORIENTED_EDGE ( 'NONE', *, *, #131, .F. ) ;
#95 = LOCAL_TIME ( 16, 17, 29.00000000000000000, #16 ) ;
#96 = ADVANCED_FACE ( 'NONE', ( #93, #59 ), #72, .T. ) ;
#97 = DATE_AND_TIME ( #192, #114 ) ;
#98 = AXIS2_PLACEMENT_3D ( 'NONE', #36, #58, #149 ) ;
#99 = CARTESIAN_POINT ( 'NONE',  ( 2.182175836776958284E-13, 2.499999999999992450, 62.50000000000000000 ) ) ;
#100 = FACE_OUTER_BOUND ( 'NONE', #46, .T. ) ;
#101 = CARTESIAN_POINT ( 'NONE',  ( 2.199633243471174140E-13, 1.999999999999992228, 63.00000000000000000 ) ) ;
#102 = DIRECTION ( 'NONE',  ( 0.0000000000000000000, 0.0000000000000000000, 1.000000000000000000 ) ) ;
#103 = VERTEX_POINT ( 'NONE', #184 ) ;
#104 = MECHANICAL_CONTEXT ( 'NONE', #62, 'mechanical' ) ;
#105 = ADVANCED_FACE ( 'NONE', ( #127 ), #71, .F. ) ;
#106 = DIRECTION ( 'NONE',  ( 4.275831445896958607E-31, 1.000000000000000000, 1.224646799147353207E-16 ) ) ;
#107 = CARTESIAN_POINT ( 'NONE',  ( 2.199633243471174140E-13, -7.715274834628325378E-15, 63.00000000000000000 ) ) ;
#108 = CARTESIAN_POINT ( 'NONE',  ( 7.681258945454893382E-14, 2.440859046282169452E-32, 22.00000000000000000 ) ) ;
#109 = AXIS2_PLACEMENT_3D ( 'NONE', #177, #4, #60 ) ;
#110 = PLANE ( 'NONE',  #227 ) ;
#111 = ADVANCED_BREP_SHAPE_REPRESENTATION ( '969461', ( #129, #130, #161 ), #92 ) ;
#112 = CONICAL_SURFACE ( 'NONE', #147, 2.000000000000000000, 0.7853981633974479459 ) ;
#113 = DIRECTION ( 'NONE',  ( 4.275831445896958607E-31, 1.000000000000000000, 1.224646799147353207E-16 ) ) ;
#114 = LOCAL_TIME ( 16, 17, 29.00000000000000000, #45 ) ;
#115 = APPROVAL_ROLE ( '' ) ;
#116 = EDGE_CURVE ( 'NONE', #82, #82, #140, .T. ) ;
#117 = APPROVAL_ROLE ( '' ) ;
#118 = EDGE_LOOP ( 'NONE', ( #44 ) ) ;
#119 = APPROVAL_STATUS ( 'not_yet_approved' ) ;
#120 = APPLICATION_CONTEXT ( 'configuration controlled 3d designs of mechanical parts and assemblies' ) ;
#121 = DIRECTION ( 'NONE',  ( 3.491481338843133355E-15, -1.224646799147353207E-16, 1.000000000000000000 ) ) ;
#122 = CARTESIAN_POINT ( 'NONE',  ( 7.681258945454893382E-14, -2.694222958124176809E-15, 22.00000000000000000 ) ) ;
#123 = CARTESIAN_POINT ( 'NONE',  ( 8.137839387432797166E-14, 2.499999999999992450, 23.30769835971452864 ) ) ;
#124 = PERSON_AND_ORGANIZATION_ROLE ( 'design_owner' ) ;
#125 = ADVANCED_FACE ( 'NONE', ( #151, #172 ), #112, .T. ) ;
#126 = DIRECTION ( 'NONE',  ( -3.491481338843133355E-15, 1.224646799147353207E-16, -1.000000000000000000 ) ) ;
#127 = FACE_OUTER_BOUND ( 'NONE', #212, .T. ) ;
#128 = DIRECTION ( 'NONE',  ( 0.0000000000000000000, 1.000000000000000000, 0.0000000000000000000 ) ) ;
#129 = MANIFOLD_SOLID_BREP ( 'Corps-Déplacer/Copier1[1]', #211 ) ;
#130 = MANIFOLD_SOLID_BREP ( 'Corps-Déplacer/Copier1[2]', #199 ) ;
#131 = EDGE_CURVE ( 'NONE', #33, #33, #223, .T. ) ;
#132 = DIRECTION ( 'NONE',  ( -3.491481338843133355E-15, 1.224646799147353207E-16, -1.000000000000000000 ) ) ;
#133 = ORIENTED_EDGE ( 'NONE', *, *, #116, .T. ) ;
#134 = CALENDAR_DATE ( 2021, 30, 11 ) ;
#135 = AXIS2_PLACEMENT_3D ( 'NONE', #169, #56, #128 ) ;
#136 = EDGE_LOOP ( 'NONE', ( #5 ) ) ;
#137 = FACE_OUTER_BOUND ( 'NONE', #229, .T. ) ;
#138 = PRODUCT_RELATED_PRODUCT_CATEGORY ( 'detail', '', ( #200 ) ) ;
#139 = ORIENTED_EDGE ( 'NONE', *, *, #143, .T. ) ;
#140 = CIRCLE ( 'NONE', #89, 3.254999999999997673 ) ;
#141 =( NAMED_UNIT ( * ) PLANE_ANGLE_UNIT ( ) SI_UNIT ( $, .RADIAN. ) );
#142 = PERSON_AND_ORGANIZATION ( #195, #207 ) ;
#143 = EDGE_CURVE ( 'NONE', #83, #83, #242, .T. ) ;
#144 = CALENDAR_DATE ( 2021, 30, 11 ) ;
#145 = CARTESIAN_POINT ( 'NONE',  ( 0.0000000000000000000, 0.0000000000000000000, 0.0000000000000000000 ) ) ;
#146 = PERSON_AND_ORGANIZATION_ROLE ( 'creator' ) ;
#147 = AXIS2_PLACEMENT_3D ( 'NONE', #107, #17, #186 ) ;
#148 = APPROVAL_PERSON_ORGANIZATION ( #238, #216, #220 ) ;
#149 = DIRECTION ( 'NONE',  ( -4.275831445896958607E-31, -1.000000000000000000, -1.224646799147353207E-16 ) ) ;
#150 = LOCAL_TIME ( 16, 17, 29.00000000000000000, #191 ) ;
#151 = FACE_OUTER_BOUND ( 'NONE', #213, .T. ) ;
#152 = EDGE_CURVE ( 'NONE', #15, #15, #165, .T. ) ;
#153 = DIRECTION ( 'NONE',  ( -3.491481338843133355E-15, 1.224646799147353207E-16, -1.000000000000000000 ) ) ;
#154 = EDGE_LOOP ( 'NONE', ( #41 ) ) ;
#155 = FACE_OUTER_BOUND ( 'NONE', #154, .T. ) ;
#156 = ORIENTED_EDGE ( 'NONE', *, *, #116, .F. ) ;
#157 = COORDINATED_UNIVERSAL_TIME_OFFSET ( 1, 0, .AHEAD. ) ;
#158 = EDGE_LOOP ( 'NONE', ( #94 ) ) ;
#159 = CALENDAR_DATE ( 2021, 30, 11 ) ;
#160 = APPROVAL_DATE_TIME ( #214, #3 ) ;
#161 = AXIS2_PLACEMENT_3D ( 'NONE', #52, #102, #51 ) ;
#162 = CC_DESIGN_PERSON_AND_ORGANIZATION_ASSIGNMENT ( #233, #210, ( #224 ) ) ;
#163 = PRODUCT_DEFINITION_SHAPE ( 'NONE', 'NONE',  #14 ) ;
#164 = CARTESIAN_POINT ( 'NONE',  ( 7.570943305532644550E-31, 2.955000000000001403, 2.168404344971008868E-16 ) ) ;
#165 = CIRCLE ( 'NONE', #48, 2.955000000000001403 ) ;
#166 = APPLICATION_PROTOCOL_DEFINITION ( 'international standard', 'config_control_design', 1994, #62 ) ;
#167 = FACE_OUTER_BOUND ( 'NONE', #136, .T. ) ;
#168 = CARTESIAN_POINT ( 'NONE',  ( 1.047444401652938626E-15, -3.673940397442054568E-17, 0.2999999999999996003 ) ) ;
#169 = CARTESIAN_POINT ( 'NONE',  ( 8.137839387432797166E-14, -2.854369819171641132E-15, 23.30769835971452864 ) ) ;
#170 = FACE_OUTER_BOUND ( 'NONE', #173, .T. ) ;
#171 = APPROVAL ( #119, 'UNSPECIFIED' ) ;
#172 = FACE_BOUND ( 'NONE', #91, .T. ) ;
#173 = EDGE_LOOP ( 'NONE', ( #156 ) ) ;
#174 = ADVANCED_FACE ( 'NONE', ( #37 ), #110, .T. ) ;
#175 = AXIS2_PLACEMENT_3D ( 'NONE', #122, #54, #81 ) ;
#176 = EDGE_LOOP ( 'NONE', ( #209 ) ) ;
#177 = CARTESIAN_POINT ( 'NONE',  ( 1.047444401652938626E-15, -3.673940397442054568E-17, 0.2999999999999996003 ) ) ;
#178 = EDGE_LOOP ( 'NONE', ( #133 ) ) ;
#179 = CARTESIAN_POINT ( 'NONE',  ( 0.0000000000000000000, 0.0000000000000000000, 0.0000000000000000000 ) ) ;
#180 = DATE_AND_TIME ( #159, #150 ) ;
#181 = ADVANCED_FACE ( 'NONE', ( #170, #167 ), #32, .T. ) ;
#182 = CIRCLE ( 'NONE', #18, 2.500000000000000000 ) ;
#183 = CIRCLE ( 'NONE', #175, 3.254999999999999893 ) ;
#184 = CARTESIAN_POINT ( 'NONE',  ( 7.681258945454893382E-14, 3.254999999999997673, 22.00000000000000000 ) ) ;
#185 = APPROVAL_DATE_TIME ( #69, #216 ) ;
#186 = DIRECTION ( 'NONE',  ( 0.0000000000000000000, 1.000000000000000000, 0.0000000000000000000 ) ) ;
#187 = DIRECTION ( 'NONE',  ( 3.491481338843133355E-15, -1.224646799147353207E-16, 1.000000000000000000 ) ) ;
#188 = AXIS2_PLACEMENT_3D ( 'NONE', #77, #40, #113 ) ;
#189 = CARTESIAN_POINT ( 'NONE',  ( 2.182175836776958284E-13, -7.654042494670957804E-15, 62.50000000000000000 ) ) ;
#190 = CARTESIAN_POINT ( 'NONE',  ( 7.681258945454893382E-14, -2.694222958124176809E-15, 22.00000000000000000 ) ) ;
#191 = COORDINATED_UNIVERSAL_TIME_OFFSET ( 1, 0, .AHEAD. ) ;
#192 = CALENDAR_DATE ( 2021, 30, 11 ) ;
#193 = DIRECTION ( 'NONE',  ( -3.491481338843133355E-15, 1.224646799147353207E-16, -1.000000000000000000 ) ) ;
#194 = PERSON_AND_ORGANIZATION_ROLE ( 'creator' ) ;
#195 = PERSON ( 'UNSPECIFIED', 'UNSPECIFIED', 'UNSPECIFIED', ('UNSPECIFIED'), ('UNSPECIFIED'), ('UNSPECIFIED') ) ;
#196 = CC_DESIGN_APPROVAL ( #216, ( #14 ) ) ;
#197 = CC_DESIGN_DATE_AND_TIME_ASSIGNMENT ( #97, #25, ( #80 ) ) ;
#198 = VERTEX_POINT ( 'NONE', #201 ) ;
#199 = CLOSED_SHELL ( 'NONE', ( #239, #96, #181, #174 ) ) ;
#200 = PRODUCT ( '969461', '969461', '', ( #104 ) ) ;
#201 = CARTESIAN_POINT ( 'NONE',  ( 7.681258945454893382E-14, 3.254999999999997673, 22.00000000000000000 ) ) ;
#202 = DATE_TIME_ROLE ( 'creation_date' ) ;
#203 = LOCAL_TIME ( 16, 17, 29.00000000000000000, #221 ) ;
#204 = CC_DESIGN_PERSON_AND_ORGANIZATION_ASSIGNMENT ( #28, #194, ( #224 ) ) ;
#205 = DIRECTION ( 'NONE',  ( -3.491481338843133355E-15, 1.224646799147353207E-16, -1.000000000000000000 ) ) ;
#206 = DIRECTION ( 'NONE',  ( -3.491481338843133355E-15, 1.224646799147353207E-16, -1.000000000000000000 ) ) ;
#207 = ORGANIZATION ( 'UNSPECIFIED', 'UNSPECIFIED', '' ) ;
#208 = CARTESIAN_POINT ( 'NONE',  ( 2.199633243471174140E-13, -7.715274834628325378E-15, 63.00000000000000000 ) ) ;
#209 = ORIENTED_EDGE ( 'NONE', *, *, #38, .F. ) ;
#210 = PERSON_AND_ORGANIZATION_ROLE ( 'design_supplier' ) ;
#211 = CLOSED_SHELL ( 'NONE', ( #105, #64, #29, #125, #70 ) ) ;
#212 = EDGE_LOOP ( 'NONE', ( #73 ) ) ;
#213 = EDGE_LOOP ( 'NONE', ( #228 ) ) ;
#214 = DATE_AND_TIME ( #134, #12 ) ;
#215 = FACE_BOUND ( 'NONE', #78, .T. ) ;
#216 = APPROVAL ( #68, 'UNSPECIFIED' ) ;
#217 = CC_DESIGN_SECURITY_CLASSIFICATION ( #80, ( #224 ) ) ;
#218 = CARTESIAN_POINT ( 'NONE',  ( -2.532069308546436610E-31, 8.881303587199162833E-33, -7.252134732547107918E-17 ) ) ;
#219 = CIRCLE ( 'NONE', #8, 3.254999999999999893 ) ;
#220 = APPROVAL_ROLE ( '' ) ;
#221 = COORDINATED_UNIVERSAL_TIME_OFFSET ( 1, 0, .AHEAD. ) ;
#222 = EDGE_CURVE ( 'NONE', #103, #103, #183, .T. ) ;
#223 = CIRCLE ( 'NONE', #43, 2.000000000000000000 ) ;
#224 = PRODUCT_DEFINITION_FORMATION_WITH_SPECIFIED_SOURCE ( 'ANY', '', #200, .NOT_KNOWN. ) ;
#225 = DIRECTION ( 'NONE',  ( -3.491481338843133355E-15, 1.224646799147353207E-16, -1.000000000000000000 ) ) ;
#226 = DIRECTION ( 'NONE',  ( -4.275831445896958607E-31, -1.000000000000000000, -1.224646799147353207E-16 ) ) ;
#227 = AXIS2_PLACEMENT_3D ( 'NONE', #108, #187, #226 ) ;
#228 = ORIENTED_EDGE ( 'NONE', *, *, #79, .F. ) ;
#229 = EDGE_LOOP ( 'NONE', ( #6 ) ) ;
#230 = CC_DESIGN_PERSON_AND_ORGANIZATION_ASSIGNMENT ( #231, #42, ( #80 ) ) ;
#231 = PERSON_AND_ORGANIZATION ( #195, #207 ) ;
#232 = CARTESIAN_POINT ( 'NONE',  ( 8.137839387432797166E-14, -2.854369819171641132E-15, 23.30769835971452864 ) ) ;
#233 = PERSON_AND_ORGANIZATION ( #195, #207 ) ;
#234 = VERTEX_POINT ( 'NONE', #99 ) ;
#235 = UNCERTAINTY_MEASURE_WITH_UNIT (LENGTH_MEASURE( 1.000000000000000082E-05 ), #65, 'distance_accuracy_value', 'NONE');
#236 = CONICAL_SURFACE ( 'NONE', #47, 2.499999999999995115, 0.5235987755982929315 ) ;
#237 = CC_DESIGN_APPROVAL ( #3, ( #224 ) ) ;
#238 = PERSON_AND_ORGANIZATION ( #195, #207 ) ;
#239 = ADVANCED_FACE ( 'NONE', ( #100 ), #67, .F. ) ;
#240 =( NAMED_UNIT ( * ) SI_UNIT ( $, .STERADIAN. ) SOLID_ANGLE_UNIT ( ) );
#241 = PERSON_AND_ORGANIZATION ( #195, #207 ) ;
#242 = CIRCLE ( 'NONE', #135, 2.499999999999995115 ) ;
#243 = CARTESIAN_POINT ( 'NONE',  ( -5.064138617092873221E-31, 1.776260717439832567E-32, -1.450426946509421584E-16 ) ) ;
ENDSEC;
END-ISO-10303-21;
