ISO-10303-21;
HEADER;
FILE_DESCRIPTION (( 'STEP AP203' ),
    '1' );
FILE_NAME ('969459.step',
    '2021-11-30T15:17:28',
    ( '' ),
    ( '' ),
    'SwSTEP 2.0',
    'SolidWorks 2019',
    '' );
FILE_SCHEMA (( 'CONFIG_CONTROL_DESIGN' ));
ENDSEC;

DATA;
#1 = ORIENTED_EDGE ( 'NONE', *, *, #160, .F. ) ;
#2 = AXIS2_PLACEMENT_3D ( 'NONE', #67, #106, #28 ) ;
#3 = ORIENTED_EDGE ( 'NONE', *, *, #233, .T. ) ;
#4 = CC_DESIGN_PERSON_AND_ORGANIZATION_ASSIGNMENT ( #101, #9, ( #6 ) ) ;
#5 = AXIS2_PLACEMENT_3D ( 'NONE', #88, #237, #27 ) ;
#6 = PRODUCT ( '969459', '969459', '', ( #182 ) ) ;
#7 = APPROVAL_PERSON_ORGANIZATION ( #143, #194, #218 ) ;
#8 = CARTESIAN_POINT ( 'NONE',  ( 2.199633243471174140E-13, -7.715274834628325378E-15, 63.00000000000000000 ) ) ;
#9 = PERSON_AND_ORGANIZATION_ROLE ( 'design_owner' ) ;
#10 = CARTESIAN_POINT ( 'NONE',  ( 2.182175836776958284E-13, 2.499999999999992450, 62.50000000000000000 ) ) ;
#11 = PLANE ( 'NONE',  #241 ) ;
#12 = DESIGN_CONTEXT ( 'detailed design', #80, 'design' ) ;
#13 = CARTESIAN_POINT ( 'NONE',  ( 7.681258945454893382E-14, -2.694222958124176809E-15, 22.00000000000000000 ) ) ;
#14 = EDGE_CURVE ( 'NONE', #51, #51, #83, .T. ) ;
#15 = FACE_OUTER_BOUND ( 'NONE', #96, .T. ) ;
#16 = EDGE_LOOP ( 'NONE', ( #128 ) ) ;
#17 = PRODUCT_DEFINITION_FORMATION_WITH_SPECIFIED_SOURCE ( 'ANY', '', #6, .NOT_KNOWN. ) ;
#18 = ORIENTED_EDGE ( 'NONE', *, *, #243, .T. ) ;
#19 = ORIENTED_EDGE ( 'NONE', *, *, #160, .T. ) ;
#20 = PERSON_AND_ORGANIZATION ( #135, #21 ) ;
#21 = ORGANIZATION ( 'UNSPECIFIED', 'UNSPECIFIED', '' ) ;
#22 = APPROVAL ( #226, 'UNSPECIFIED' ) ;
#23 = SECURITY_CLASSIFICATION ( '', '', #191 ) ;
#24 = CLOSED_SHELL ( 'NONE', ( #152, #38, #216, #64 ) ) ;
#25 = DIRECTION ( 'NONE',  ( 4.275831445896958607E-31, 1.000000000000000000, 1.224646799147353207E-16 ) ) ;
#26 = CARTESIAN_POINT ( 'NONE',  ( 2.934387833029472620E-31, -1.029244701152313882E-32, 8.404420783763238131E-17 ) ) ;
#27 = DIRECTION ( 'NONE',  ( 1.000000000000000000, 0.0000000000000000000, 0.0000000000000000000 ) ) ;
#28 = DIRECTION ( 'NONE',  ( -4.275831445896958607E-31, -1.000000000000000000, -1.224646799147353207E-16 ) ) ;
#29 = AXIS2_PLACEMENT_3D ( 'NONE', #164, #33, #187 ) ;
#30 = COORDINATED_UNIVERSAL_TIME_OFFSET ( 1, 0, .AHEAD. ) ;
#31 = DIRECTION ( 'NONE',  ( -3.491481338843133355E-15, 1.224646799147353207E-16, -1.000000000000000000 ) ) ;
#32 = COORDINATED_UNIVERSAL_TIME_OFFSET ( 1, 0, .AHEAD. ) ;
#33 = DIRECTION ( 'NONE',  ( -3.491481338843133355E-15, 1.224646799147353207E-16, -1.000000000000000000 ) ) ;
#34 = ADVANCED_FACE ( 'NONE', ( #115, #228 ), #114, .T. ) ;
#35 = ORIENTED_EDGE ( 'NONE', *, *, #86, .F. ) ;
#36 = DATE_AND_TIME ( #207, #179 ) ;
#37 = DIRECTION ( 'NONE',  ( -3.491481338843133355E-15, 1.224646799147353207E-16, -1.000000000000000000 ) ) ;
#38 = ADVANCED_FACE ( 'NONE', ( #138, #112 ), #78, .T. ) ;
#39 = CARTESIAN_POINT ( 'NONE',  ( 8.077365156707248342E-14, -2.833158314397142615E-15, 23.13449327895763830 ) ) ;
#40 = CC_DESIGN_APPROVAL ( #176, ( #23 ) ) ;
#41 = AXIS2_PLACEMENT_3D ( 'NONE', #26, #239, #25 ) ;
#42 = DIRECTION ( 'NONE',  ( -4.275831445896958607E-31, -1.000000000000000000, -1.224646799147353207E-16 ) ) ;
#43 = ADVANCED_FACE ( 'NONE', ( #82 ), #178, .F. ) ;
#44 = VERTEX_POINT ( 'NONE', #163 ) ;
#45 = CLOSED_SHELL ( 'NONE', ( #43, #34, #197, #95, #117 ) ) ;
#46 = CIRCLE ( 'NONE', #201, 3.154999999999998916 ) ;
#47 = COORDINATED_UNIVERSAL_TIME_OFFSET ( 1, 0, .AHEAD. ) ;
#48 = FACE_OUTER_BOUND ( 'NONE', #79, .T. ) ;
#49 = FACE_OUTER_BOUND ( 'NONE', #203, .T. ) ;
#50 = PERSON_AND_ORGANIZATION ( #135, #21 ) ;
#51 = VERTEX_POINT ( 'NONE', #70 ) ;
#52 = CC_DESIGN_SECURITY_CLASSIFICATION ( #23, ( #17 ) ) ;
#53 = EDGE_LOOP ( 'NONE', ( #19 ) ) ;
#54 = DIRECTION ( 'NONE',  ( 4.275831445896958607E-31, 1.000000000000000000, 1.224646799147353207E-16 ) ) ;
#55 = EDGE_CURVE ( 'NONE', #181, #181, #212, .T. ) ;
#56 = APPROVAL_DATE_TIME ( #36, #22 ) ;
#57 = EDGE_LOOP ( 'NONE', ( #59 ) ) ;
#58 = DATE_TIME_ROLE ( 'creation_date' ) ;
#59 = ORIENTED_EDGE ( 'NONE', *, *, #168, .T. ) ;
#60 = ORIENTED_EDGE ( 'NONE', *, *, #14, .T. ) ;
#61 = PRODUCT_DEFINITION_SHAPE ( 'NONE', 'NONE',  #116 ) ;
#62 = CARTESIAN_POINT ( 'NONE',  ( 8.077365156707248342E-14, -2.833158314397142615E-15, 23.13449327895763830 ) ) ;
#63 = APPROVAL_ROLE ( '' ) ;
#64 = ADVANCED_FACE ( 'NONE', ( #48 ), #184, .T. ) ;
#65 = AXIS2_PLACEMENT_3D ( 'NONE', #222, #122, #54 ) ;
#66 = DIRECTION ( 'NONE',  ( 0.0000000000000000000, 1.000000000000000000, 0.0000000000000000000 ) ) ;
#67 = CARTESIAN_POINT ( 'NONE',  ( 7.681258945454893382E-14, 2.365871057149075751E-32, 22.00000000000000000 ) ) ;
#68 = CC_DESIGN_APPROVAL ( #194, ( #116 ) ) ;
#69 = APPLICATION_PROTOCOL_DEFINITION ( 'international standard', 'config_control_design', 1994, #107 ) ;
#70 = CARTESIAN_POINT ( 'NONE',  ( 8.077365156707248342E-14, 2.499999999999992450, 23.13449327895763830 ) ) ;
#71 = PLANE ( 'NONE',  #65 ) ;
#72 =( NAMED_UNIT ( * ) SI_UNIT ( $, .STERADIAN. ) SOLID_ANGLE_UNIT ( ) );
#73 = VERTEX_POINT ( 'NONE', #215 ) ;
#74 = APPROVAL_PERSON_ORGANIZATION ( #209, #176, #63 ) ;
#75 = DATE_AND_TIME ( #242, #92 ) ;
#76 = CC_DESIGN_PERSON_AND_ORGANIZATION_ASSIGNMENT ( #186, #205, ( #17 ) ) ;
#77 = EDGE_LOOP ( 'NONE', ( #136 ) ) ;
#78 = CONICAL_SURFACE ( 'NONE', #99, 3.154999999999997140, 0.7853981633974438381 ) ;
#79 = EDGE_LOOP ( 'NONE', ( #192 ) ) ;
#80 = APPLICATION_CONTEXT ( 'configuration controlled 3d designs of mechanical parts and assemblies' ) ;
#81 = MANIFOLD_SOLID_BREP ( 'Corps-Déplacer/Copier1[1]', #45 ) ;
#82 = FACE_OUTER_BOUND ( 'NONE', #57, .T. ) ;
#83 = CIRCLE ( 'NONE', #217, 2.499999999999995115 ) ;
#84 = MANIFOLD_SOLID_BREP ( 'Corps-Déplacer/Copier1[2]', #24 ) ;
#85 = CARTESIAN_POINT ( 'NONE',  ( 7.681258945454893382E-14, 2.365871057149075751E-32, 22.00000000000000000 ) ) ;
#86 = EDGE_CURVE ( 'NONE', #142, #142, #149, .T. ) ;
#87 = DIRECTION ( 'NONE',  ( 0.0000000000000000000, 1.000000000000000000, 0.0000000000000000000 ) ) ;
#88 = CARTESIAN_POINT ( 'NONE',  ( 0.0000000000000000000, 0.0000000000000000000, 0.0000000000000000000 ) ) ;
#89 = CARTESIAN_POINT ( 'NONE',  ( 1.047444401652938823E-15, -3.673940397442055800E-17, 0.2999999999999996558 ) ) ;
#90 =( LENGTH_UNIT ( ) NAMED_UNIT ( * ) SI_UNIT ( .MILLI., .METRE. ) );
#91 = DIRECTION ( 'NONE',  ( 4.275831445896959482E-31, 1.000000000000000000, 1.224646799147353454E-16 ) ) ;
#92 = LOCAL_TIME ( 16, 17, 28.00000000000000000, #97 ) ;
#93 = CARTESIAN_POINT ( 'NONE',  ( 0.0000000000000000000, 0.0000000000000000000, 0.0000000000000000000 ) ) ;
#94 = DIRECTION ( 'NONE',  ( -3.491481338843133355E-15, 1.224646799147353207E-16, -1.000000000000000000 ) ) ;
#95 = ADVANCED_FACE ( 'NONE', ( #49, #234 ), #177, .T. ) ;
#96 = EDGE_LOOP ( 'NONE', ( #35 ) ) ;
#97 = COORDINATED_UNIVERSAL_TIME_OFFSET ( 1, 0, .AHEAD. ) ;
#98 = CALENDAR_DATE ( 2021, 30, 11 ) ;
#99 = AXIS2_PLACEMENT_3D ( 'NONE', #210, #157, #188 ) ;
#100 = AXIS2_PLACEMENT_3D ( 'NONE', #129, #31, #66 ) ;
#101 = PERSON_AND_ORGANIZATION ( #135, #21 ) ;
#102 = DIRECTION ( 'NONE',  ( 0.0000000000000000000, 1.000000000000000000, 0.0000000000000000000 ) ) ;
#103 = VERTEX_POINT ( 'NONE', #220 ) ;
#104 = FACE_OUTER_BOUND ( 'NONE', #16, .T. ) ;
#105 = CIRCLE ( 'NONE', #41, 2.855000000000000426 ) ;
#106 = DIRECTION ( 'NONE',  ( 3.491481338843133355E-15, -1.224646799147353207E-16, 1.000000000000000000 ) ) ;
#107 = APPLICATION_CONTEXT ( 'configuration controlled 3d designs of mechanical parts and assemblies' ) ;
#108 = PERSON_AND_ORGANIZATION ( #135, #21 ) ;
#109 = CC_DESIGN_PERSON_AND_ORGANIZATION_ASSIGNMENT ( #20, #156, ( #23 ) ) ;
#110 = EDGE_LOOP ( 'NONE', ( #18 ) ) ;
#111 = PERSON_AND_ORGANIZATION_ROLE ( 'design_supplier' ) ;
#112 = FACE_OUTER_BOUND ( 'NONE', #155, .T. ) ;
#113 = APPROVAL_STATUS ( 'not_yet_approved' ) ;
#114 = CONICAL_SURFACE ( 'NONE', #120, 2.499999999999995115, 0.5235987755982921543 ) ;
#115 = FACE_OUTER_BOUND ( 'NONE', #153, .T. ) ;
#116 = PRODUCT_DEFINITION ( 'UNKNOWN', '', #17, #12 ) ;
#117 = ADVANCED_FACE ( 'NONE', ( #104 ), #71, .F. ) ;
#118 = CC_DESIGN_DATE_AND_TIME_ASSIGNMENT ( #173, #227, ( #23 ) ) ;
#119 =( NAMED_UNIT ( * ) PLANE_ANGLE_UNIT ( ) SI_UNIT ( $, .RADIAN. ) );
#120 = AXIS2_PLACEMENT_3D ( 'NONE', #62, #37, #174 ) ;
#121 = DIRECTION ( 'NONE',  ( 0.0000000000000000000, 1.000000000000000000, 0.0000000000000000000 ) ) ;
#122 = DIRECTION ( 'NONE',  ( -3.491481338843133355E-15, 1.224646799147353207E-16, -1.000000000000000000 ) ) ;
#123 = FACE_OUTER_BOUND ( 'NONE', #53, .T. ) ;
#124 = CALENDAR_DATE ( 2021, 30, 11 ) ;
#125 = CC_DESIGN_PERSON_AND_ORGANIZATION_ASSIGNMENT ( #137, #111, ( #17 ) ) ;
#126 = FACE_OUTER_BOUND ( 'NONE', #169, .T. ) ;
#127 =( GEOMETRIC_REPRESENTATION_CONTEXT ( 3 ) GLOBAL_UNCERTAINTY_ASSIGNED_CONTEXT ( ( #145 ) ) GLOBAL_UNIT_ASSIGNED_CONTEXT ( ( #90, #119, #72 ) ) REPRESENTATION_CONTEXT ( 'NONE', 'WORKASPACE' ) );
#128 = ORIENTED_EDGE ( 'NONE', *, *, #55, .F. ) ;
#129 = CARTESIAN_POINT ( 'NONE',  ( 2.182175836776958284E-13, -7.654042494670957804E-15, 62.50000000000000000 ) ) ;
#130 = SHAPE_DEFINITION_REPRESENTATION ( #61, #230 ) ;
#131 = PRODUCT_RELATED_PRODUCT_CATEGORY ( 'detail', '', ( #6 ) ) ;
#132 = ORIENTED_EDGE ( 'NONE', *, *, #168, .F. ) ;
#133 = DATE_AND_TIME ( #154, #195 ) ;
#134 = AXIS2_PLACEMENT_3D ( 'NONE', #238, #94, #87 ) ;
#135 = PERSON ( 'UNSPECIFIED', 'UNSPECIFIED', 'UNSPECIFIED', ('UNSPECIFIED'), ('UNSPECIFIED'), ('UNSPECIFIED') ) ;
#136 = ORIENTED_EDGE ( 'NONE', *, *, #14, .F. ) ;
#137 = PERSON_AND_ORGANIZATION ( #135, #21 ) ;
#138 = FACE_BOUND ( 'NONE', #171, .T. ) ;
#139 = DIRECTION ( 'NONE',  ( -3.491481338843133355E-15, 1.224646799147353207E-16, -1.000000000000000000 ) ) ;
#140 = AXIS2_PLACEMENT_3D ( 'NONE', #85, #231, #42 ) ;
#141 = DIRECTION ( 'NONE',  ( -3.491481338843133355E-15, 1.224646799147353207E-16, -1.000000000000000000 ) ) ;
#142 = VERTEX_POINT ( 'NONE', #240 ) ;
#143 = PERSON_AND_ORGANIZATION ( #135, #21 ) ;
#144 = DIRECTION ( 'NONE',  ( -3.491481338843133355E-15, 1.224646799147353207E-16, -1.000000000000000000 ) ) ;
#145 = UNCERTAINTY_MEASURE_WITH_UNIT (LENGTH_MEASURE( 1.000000000000000082E-05 ), #90, 'distance_accuracy_value', 'NONE');
#146 = DIRECTION ( 'NONE',  ( -4.275831445896958607E-31, -1.000000000000000000, -1.224646799147353207E-16 ) ) ;
#147 = DATE_AND_TIME ( #124, #183 ) ;
#148 = DIRECTION ( 'NONE',  ( -3.491481338843133355E-15, 1.224646799147353207E-16, -1.000000000000000000 ) ) ;
#149 = CIRCLE ( 'NONE', #213, 3.154999999999997140 ) ;
#150 = LOCAL_TIME ( 16, 17, 28.00000000000000000, #229 ) ;
#151 = APPROVAL_ROLE ( '' ) ;
#152 = ADVANCED_FACE ( 'NONE', ( #126 ), #11, .F. ) ;
#153 = EDGE_LOOP ( 'NONE', ( #132 ) ) ;
#154 = CALENDAR_DATE ( 2021, 30, 11 ) ;
#155 = EDGE_LOOP ( 'NONE', ( #208 ) ) ;
#156 = PERSON_AND_ORGANIZATION_ROLE ( 'classification_officer' ) ;
#157 = DIRECTION ( 'NONE',  ( 3.491481338843133355E-15, -1.224646799147353207E-16, 1.000000000000000000 ) ) ;
#158 = APPROVAL_PERSON_ORGANIZATION ( #108, #22, #151 ) ;
#159 = CC_DESIGN_APPROVAL ( #22, ( #17 ) ) ;
#160 = EDGE_CURVE ( 'NONE', #161, #161, #236, .T. ) ;
#161 = VERTEX_POINT ( 'NONE', #10 ) ;
#162 = APPLICATION_PROTOCOL_DEFINITION ( 'international standard', 'config_control_design', 1994, #80 ) ;
#163 = CARTESIAN_POINT ( 'NONE',  ( 7.681258945454893382E-14, 3.154999999999996252, 22.00000000000000000 ) ) ;
#164 = CARTESIAN_POINT ( 'NONE',  ( 0.0000000000000000000, 0.0000000000000000000, 0.0000000000000000000 ) ) ;
#165 = APPROVAL_STATUS ( 'not_yet_approved' ) ;
#166 = DIRECTION ( 'NONE',  ( 4.273061683268038967E-31, 1.000000000000000000, 1.202759937781067793E-16 ) ) ;
#167 = CARTESIAN_POINT ( 'NONE',  ( 2.199633243471174140E-13, 1.999999999999992228, 63.00000000000000000 ) ) ;
#168 = EDGE_CURVE ( 'NONE', #103, #103, #46, .T. ) ;
#169 = EDGE_LOOP ( 'NONE', ( #3 ) ) ;
#170 = ORIENTED_EDGE ( 'NONE', *, *, #233, .F. ) ;
#171 = EDGE_LOOP ( 'NONE', ( #170 ) ) ;
#172 = EDGE_LOOP ( 'NONE', ( #60 ) ) ;
#173 = DATE_AND_TIME ( #98, #150 ) ;
#174 = DIRECTION ( 'NONE',  ( 0.0000000000000000000, 1.000000000000000000, 0.0000000000000000000 ) ) ;
#175 = CC_DESIGN_DATE_AND_TIME_ASSIGNMENT ( #133, #58, ( #116 ) ) ;
#176 = APPROVAL ( #113, 'UNSPECIFIED' ) ;
#177 = CONICAL_SURFACE ( 'NONE', #223, 2.000000000000000000, 0.7853981633974479459 ) ;
#178 = PLANE ( 'NONE',  #140 ) ;
#179 = LOCAL_TIME ( 16, 17, 28.00000000000000000, #32 ) ;
#180 = DIRECTION ( 'NONE',  ( 3.491481338843133355E-15, -1.224646799147353207E-16, 1.000000000000000000 ) ) ;
#181 = VERTEX_POINT ( 'NONE', #167 ) ;
#182 = MECHANICAL_CONTEXT ( 'NONE', #107, 'mechanical' ) ;
#183 = LOCAL_TIME ( 16, 17, 28.00000000000000000, #47 ) ;
#184 = PLANE ( 'NONE',  #2 ) ;
#185 = DIRECTION ( 'NONE',  ( 0.0000000000000000000, 1.000000000000000000, 0.0000000000000000000 ) ) ;
#186 = PERSON_AND_ORGANIZATION ( #135, #21 ) ;
#187 = DIRECTION ( 'NONE',  ( 4.275831445896958607E-31, 1.000000000000000000, 1.224646799147353207E-16 ) ) ;
#188 = DIRECTION ( 'NONE',  ( -4.273061683268038967E-31, -1.000000000000000000, -1.202759937781067793E-16 ) ) ;
#189 = ORIENTED_EDGE ( 'NONE', *, *, #55, .T. ) ;
#190 = EDGE_LOOP ( 'NONE', ( #189 ) ) ;
#191 = SECURITY_CLASSIFICATION_LEVEL ( 'unclassified' ) ;
#192 = ORIENTED_EDGE ( 'NONE', *, *, #243, .F. ) ;
#193 = AXIS2_PLACEMENT_3D ( 'NONE', #93, #198, #91 ) ;
#194 = APPROVAL ( #165, 'UNSPECIFIED' ) ;
#195 = LOCAL_TIME ( 16, 17, 28.00000000000000000, #30 ) ;
#196 = CYLINDRICAL_SURFACE ( 'NONE', #193, 2.499999999999997780 ) ;
#197 = ADVANCED_FACE ( 'NONE', ( #204, #123 ), #196, .T. ) ;
#198 = DIRECTION ( 'NONE',  ( -3.491481338843133355E-15, 1.224646799147353207E-16, -1.000000000000000000 ) ) ;
#199 = FACE_OUTER_BOUND ( 'NONE', #110, .T. ) ;
#200 = PERSON_AND_ORGANIZATION_ROLE ( 'creator' ) ;
#201 = AXIS2_PLACEMENT_3D ( 'NONE', #13, #144, #185 ) ;
#202 = CARTESIAN_POINT ( 'NONE',  ( 2.199633243471174140E-13, -7.715274834628325378E-15, 63.00000000000000000 ) ) ;
#203 = EDGE_LOOP ( 'NONE', ( #1 ) ) ;
#204 = FACE_OUTER_BOUND ( 'NONE', #77, .T. ) ;
#205 = PERSON_AND_ORGANIZATION_ROLE ( 'creator' ) ;
#206 = AXIS2_PLACEMENT_3D ( 'NONE', #8, #141, #102 ) ;
#207 = CALENDAR_DATE ( 2021, 30, 11 ) ;
#208 = ORIENTED_EDGE ( 'NONE', *, *, #86, .T. ) ;
#209 = PERSON_AND_ORGANIZATION ( #135, #21 ) ;
#210 = CARTESIAN_POINT ( 'NONE',  ( 1.047444401652938823E-15, -3.673940397442055800E-17, 0.2999999999999996558 ) ) ;
#211 = DIRECTION ( 'NONE',  ( 0.0000000000000000000, 1.000000000000000000, 0.0000000000000000000 ) ) ;
#212 = CIRCLE ( 'NONE', #206, 2.000000000000000000 ) ;
#213 = AXIS2_PLACEMENT_3D ( 'NONE', #89, #148, #166 ) ;
#214 = CC_DESIGN_PERSON_AND_ORGANIZATION_ASSIGNMENT ( #50, #200, ( #116 ) ) ;
#215 = CARTESIAN_POINT ( 'NONE',  ( 1.514188661106529085E-30, 2.855000000000000426, 4.336808689942017736E-16 ) ) ;
#216 = ADVANCED_FACE ( 'NONE', ( #15, #199 ), #219, .T. ) ;
#217 = AXIS2_PLACEMENT_3D ( 'NONE', #39, #139, #211 ) ;
#218 = APPROVAL_ROLE ( '' ) ;
#219 = CYLINDRICAL_SURFACE ( 'NONE', #29, 3.154999999999998028 ) ;
#220 = CARTESIAN_POINT ( 'NONE',  ( 7.681258945454893382E-14, 3.154999999999996252, 22.00000000000000000 ) ) ;
#221 = APPROVAL_DATE_TIME ( #147, #194 ) ;
#222 = CARTESIAN_POINT ( 'NONE',  ( 2.199633243471174140E-13, 1.499759782661846113E-32, 63.00000000000000000 ) ) ;
#223 = AXIS2_PLACEMENT_3D ( 'NONE', #202, #224, #121 ) ;
#224 = DIRECTION ( 'NONE',  ( -3.491481338843133355E-15, 1.224646799147353207E-16, -1.000000000000000000 ) ) ;
#225 = APPROVAL_DATE_TIME ( #75, #176 ) ;
#226 = APPROVAL_STATUS ( 'not_yet_approved' ) ;
#227 = DATE_TIME_ROLE ( 'classification_date' ) ;
#228 = FACE_BOUND ( 'NONE', #172, .T. ) ;
#229 = COORDINATED_UNIVERSAL_TIME_OFFSET ( 1, 0, .AHEAD. ) ;
#230 = ADVANCED_BREP_SHAPE_REPRESENTATION ( '969459', ( #81, #84, #5 ), #127 ) ;
#231 = DIRECTION ( 'NONE',  ( 3.491481338843133355E-15, -1.224646799147353207E-16, 1.000000000000000000 ) ) ;
#232 = CIRCLE ( 'NONE', #134, 3.154999999999998916 ) ;
#233 = EDGE_CURVE ( 'NONE', #73, #73, #105, .T. ) ;
#234 = FACE_BOUND ( 'NONE', #190, .T. ) ;
#235 = CARTESIAN_POINT ( 'NONE',  ( 1.467193916514736310E-31, -5.146223505761569410E-33, 4.202210391881619065E-17 ) ) ;
#236 = CIRCLE ( 'NONE', #100, 2.500000000000000000 ) ;
#237 = DIRECTION ( 'NONE',  ( 0.0000000000000000000, 0.0000000000000000000, 1.000000000000000000 ) ) ;
#238 = CARTESIAN_POINT ( 'NONE',  ( 7.681258945454893382E-14, -2.694222958124176809E-15, 22.00000000000000000 ) ) ;
#239 = DIRECTION ( 'NONE',  ( -3.491481338843133355E-15, 1.224646799147353207E-16, -1.000000000000000000 ) ) ;
#240 = CARTESIAN_POINT ( 'NONE',  ( 1.047444401652940007E-15, 3.154999999999997140, 0.3000000000000000444 ) ) ;
#241 = AXIS2_PLACEMENT_3D ( 'NONE', #235, #180, #146 ) ;
#242 = CALENDAR_DATE ( 2021, 30, 11 ) ;
#243 = EDGE_CURVE ( 'NONE', #44, #44, #232, .T. ) ;
ENDSEC;
END-ISO-10303-21;
