ISO-10303-21;
HEADER;
FILE_DESCRIPTION (( 'STEP AP203' ),
    '1' );
FILE_NAME ('969458.step',
    '2021-11-30T15:17:27',
    ( '' ),
    ( '' ),
    'SwSTEP 2.0',
    'SolidWorks 2019',
    '' );
FILE_SCHEMA (( 'CONFIG_CONTROL_DESIGN' ));
ENDSEC;

DATA;
#1 = AXIS2_PLACEMENT_3D ( 'NONE', #149, #218, #119 ) ;
#2 = DIRECTION ( 'NONE',  ( -3.491481338843133355E-15, 1.224646799147353207E-16, -1.000000000000000000 ) ) ;
#3 = PERSON_AND_ORGANIZATION ( #176, #60 ) ;
#4 = CARTESIAN_POINT ( 'NONE',  ( 0.0000000000000000000, 0.0000000000000000000, 0.0000000000000000000 ) ) ;
#5 =( NAMED_UNIT ( * ) PLANE_ANGLE_UNIT ( ) SI_UNIT ( $, .RADIAN. ) );
#6 = AXIS2_PLACEMENT_3D ( 'NONE', #71, #226, #171 ) ;
#7 = CARTESIAN_POINT ( 'NONE',  ( 0.0000000000000000000, 0.0000000000000000000, 0.0000000000000000000 ) ) ;
#8 = ADVANCED_BREP_SHAPE_REPRESENTATION ( '969458', ( #70, #67, #205 ), #166 ) ;
#9 = PERSON_AND_ORGANIZATION ( #176, #60 ) ;
#10 = CONICAL_SURFACE ( 'NONE', #174, 2.499999999999995115, 0.5235987755982922653 ) ;
#11 = CONICAL_SURFACE ( 'NONE', #163, 2.000000000000000000, 0.7853981633974479459 ) ;
#12 = ADVANCED_FACE ( 'NONE', ( #225 ), #92, .F. ) ;
#13 = EDGE_LOOP ( 'NONE', ( #89 ) ) ;
#14 = EDGE_LOOP ( 'NONE', ( #238 ) ) ;
#15 = ADVANCED_FACE ( 'NONE', ( #23 ), #190, .F. ) ;
#16 = CIRCLE ( 'NONE', #33, 3.104999999999999094 ) ;
#17 = SECURITY_CLASSIFICATION ( '', '', #109 ) ;
#18 = CARTESIAN_POINT ( 'NONE',  ( 7.570943305532646302E-31, 2.805000000000001492, 2.168404344971008868E-16 ) ) ;
#19 = APPROVAL_STATUS ( 'not_yet_approved' ) ;
#20 = CARTESIAN_POINT ( 'NONE',  ( 2.199633243471174140E-13, -7.715274834628325378E-15, 63.00000000000000000 ) ) ;
#21 = CARTESIAN_POINT ( 'NONE',  ( 0.0000000000000000000, 0.0000000000000000000, 0.0000000000000000000 ) ) ;
#22 = CC_DESIGN_DATE_AND_TIME_ASSIGNMENT ( #38, #69, ( #90 ) ) ;
#23 = FACE_OUTER_BOUND ( 'NONE', #202, .T. ) ;
#24 =( LENGTH_UNIT ( ) NAMED_UNIT ( * ) SI_UNIT ( .MILLI., .METRE. ) );
#25 = CIRCLE ( 'NONE', #6, 2.000000000000000000 ) ;
#26 = PERSON_AND_ORGANIZATION ( #176, #60 ) ;
#27 = DIRECTION ( 'NONE',  ( 3.491481338843133355E-15, -1.224646799147353207E-16, 1.000000000000000000 ) ) ;
#28 = PERSON_AND_ORGANIZATION ( #176, #60 ) ;
#29 = CYLINDRICAL_SURFACE ( 'NONE', #47, 2.499999999999997780 ) ;
#30 = CARTESIAN_POINT ( 'NONE',  ( 7.681258945454893382E-14, 3.104999999999996874, 22.00000000000000000 ) ) ;
#31 = ADVANCED_FACE ( 'NONE', ( #175, #173 ), #138, .T. ) ;
#32 = EDGE_LOOP ( 'NONE', ( #120 ) ) ;
#33 = AXIS2_PLACEMENT_3D ( 'NONE', #243, #156, #95 ) ;
#34 = LOCAL_TIME ( 16, 17, 27.00000000000000000, #242 ) ;
#35 = PERSON_AND_ORGANIZATION ( #176, #60 ) ;
#36 = DIRECTION ( 'NONE',  ( -3.491481338843133355E-15, 1.224646799147353207E-16, -1.000000000000000000 ) ) ;
#37 = CIRCLE ( 'NONE', #227, 2.805000000000001492 ) ;
#38 = DATE_AND_TIME ( #170, #186 ) ;
#39 = DIRECTION ( 'NONE',  ( -4.341871050148361865E-31, -1.000000000000000000, -1.222128052721181665E-16 ) ) ;
#40 = CC_DESIGN_PERSON_AND_ORGANIZATION_ASSIGNMENT ( #26, #74, ( #83 ) ) ;
#41 = PERSON_AND_ORGANIZATION ( #176, #60 ) ;
#42 = DIRECTION ( 'NONE',  ( 0.0000000000000000000, 1.000000000000000000, 0.0000000000000000000 ) ) ;
#43 = APPROVAL_STATUS ( 'not_yet_approved' ) ;
#44 = CARTESIAN_POINT ( 'NONE',  ( -2.211381950104164584E-31, 7.756483750202769627E-33, -6.333649633186593814E-17 ) ) ;
#45 = DIRECTION ( 'NONE',  ( 1.000000000000000000, 0.0000000000000000000, 0.0000000000000000000 ) ) ;
#46 = DIRECTION ( 'NONE',  ( 0.0000000000000000000, 1.000000000000000000, 0.0000000000000000000 ) ) ;
#47 = AXIS2_PLACEMENT_3D ( 'NONE', #4, #79, #164 ) ;
#48 = APPROVAL ( #129, 'UNSPECIFIED' ) ;
#49 = ORIENTED_EDGE ( 'NONE', *, *, #209, .T. ) ;
#50 = ORIENTED_EDGE ( 'NONE', *, *, #54, .F. ) ;
#51 = CONICAL_SURFACE ( 'NONE', #139, 3.104999999999997318, 0.7853981633974420618 ) ;
#52 = FACE_OUTER_BOUND ( 'NONE', #13, .T. ) ;
#53 = DIRECTION ( 'NONE',  ( 4.275831445896958607E-31, 1.000000000000000000, 1.224646799147353207E-16 ) ) ;
#54 = EDGE_CURVE ( 'NONE', #97, #97, #37, .T. ) ;
#55 = AXIS2_PLACEMENT_3D ( 'NONE', #21, #2, #58 ) ;
#56 = CARTESIAN_POINT ( 'NONE',  ( 7.681258945454893382E-14, 2.328377062582529584E-32, 22.00000000000000000 ) ) ;
#57 = DATE_AND_TIME ( #194, #241 ) ;
#58 = DIRECTION ( 'NONE',  ( 4.275831445896958607E-31, 1.000000000000000000, 1.224646799147353207E-16 ) ) ;
#59 = MECHANICAL_CONTEXT ( 'NONE', #103, 'mechanical' ) ;
#60 = ORGANIZATION ( 'UNSPECIFIED', 'UNSPECIFIED', '' ) ;
#61 = EDGE_CURVE ( 'NONE', #158, #158, #98, .T. ) ;
#62 = PLANE ( 'NONE',  #64 ) ;
#63 = EDGE_LOOP ( 'NONE', ( #208 ) ) ;
#64 = AXIS2_PLACEMENT_3D ( 'NONE', #141, #217, #117 ) ;
#65 = EDGE_LOOP ( 'NONE', ( #236 ) ) ;
#66 = ORIENTED_EDGE ( 'NONE', *, *, #215, .F. ) ;
#67 = MANIFOLD_SOLID_BREP ( 'Corps-Déplacer/Copier1[2]', #113 ) ;
#68 = LOCAL_TIME ( 16, 17, 27.00000000000000000, #211 ) ;
#69 = DATE_TIME_ROLE ( 'creation_date' ) ;
#70 = MANIFOLD_SOLID_BREP ( 'Corps-Déplacer/Copier1[1]', #114 ) ;
#71 = CARTESIAN_POINT ( 'NONE',  ( 2.199633243471174140E-13, -7.715274834628325378E-15, 63.00000000000000000 ) ) ;
#72 = DATE_AND_TIME ( #107, #34 ) ;
#73 = CARTESIAN_POINT ( 'NONE',  ( 2.199633243471174140E-13, 1.499759782661846113E-32, 63.00000000000000000 ) ) ;
#74 = PERSON_AND_ORGANIZATION_ROLE ( 'design_supplier' ) ;
#75 = DIRECTION ( 'NONE',  ( 3.491481338843133355E-15, -1.224646799147353207E-16, 1.000000000000000000 ) ) ;
#76 = DATE_AND_TIME ( #137, #68 ) ;
#77 = CARTESIAN_POINT ( 'NONE',  ( 8.047128041344473298E-14, -2.822552562009893356E-15, 23.04789073857919135 ) ) ;
#78 = COORDINATED_UNIVERSAL_TIME_OFFSET ( 1, 0, .AHEAD. ) ;
#79 = DIRECTION ( 'NONE',  ( -3.491481338843133355E-15, 1.224646799147353207E-16, -1.000000000000000000 ) ) ;
#80 = PRODUCT_RELATED_PRODUCT_CATEGORY ( 'detail', '', ( #198 ) ) ;
#81 = FACE_OUTER_BOUND ( 'NONE', #32, .T. ) ;
#82 = PERSON_AND_ORGANIZATION_ROLE ( 'design_owner' ) ;
#83 = PRODUCT_DEFINITION_FORMATION_WITH_SPECIFIED_SOURCE ( 'ANY', '', #198, .NOT_KNOWN. ) ;
#84 = APPROVAL ( #43, 'UNSPECIFIED' ) ;
#85 = EDGE_LOOP ( 'NONE', ( #122 ) ) ;
#86 = AXIS2_PLACEMENT_3D ( 'NONE', #44, #75, #93 ) ;
#87 = ADVANCED_FACE ( 'NONE', ( #132 ), #193, .F. ) ;
#88 = EDGE_LOOP ( 'NONE', ( #50 ) ) ;
#89 = ORIENTED_EDGE ( 'NONE', *, *, #101, .F. ) ;
#90 = PRODUCT_DEFINITION ( 'UNKNOWN', '', #83, #124 ) ;
#91 = APPROVAL_DATE_TIME ( #72, #125 ) ;
#92 = PLANE ( 'NONE',  #219 ) ;
#93 = DIRECTION ( 'NONE',  ( -4.275831445896958607E-31, -1.000000000000000000, -1.224646799147353207E-16 ) ) ;
#94 = DIRECTION ( 'NONE',  ( -3.491481338843133355E-15, 1.224646799147353207E-16, -1.000000000000000000 ) ) ;
#95 = DIRECTION ( 'NONE',  ( 0.0000000000000000000, 1.000000000000000000, 0.0000000000000000000 ) ) ;
#96 = PERSON_AND_ORGANIZATION_ROLE ( 'creator' ) ;
#97 = VERTEX_POINT ( 'NONE', #18 ) ;
#98 = CIRCLE ( 'NONE', #123, 2.499999999999995115 ) ;
#99 = CC_DESIGN_PERSON_AND_ORGANIZATION_ASSIGNMENT ( #230, #207, ( #83 ) ) ;
#100 = ORIENTED_EDGE ( 'NONE', *, *, #61, .T. ) ;
#101 = EDGE_CURVE ( 'NONE', #179, #179, #239, .T. ) ;
#102 = UNCERTAINTY_MEASURE_WITH_UNIT (LENGTH_MEASURE( 1.000000000000000082E-05 ), #24, 'distance_accuracy_value', 'NONE');
#103 = APPLICATION_CONTEXT ( 'configuration controlled 3d designs of mechanical parts and assemblies' ) ;
#104 = CIRCLE ( 'NONE', #184, 3.104999999999997318 ) ;
#105 = PERSON_AND_ORGANIZATION_ROLE ( 'classification_officer' ) ;
#106 = DIRECTION ( 'NONE',  ( 3.491481338843133355E-15, -1.224646799147353207E-16, 1.000000000000000000 ) ) ;
#107 = CALENDAR_DATE ( 2021, 30, 11 ) ;
#108 = FACE_OUTER_BOUND ( 'NONE', #14, .T. ) ;
#109 = SECURITY_CLASSIFICATION_LEVEL ( 'unclassified' ) ;
#110 = DIRECTION ( 'NONE',  ( 4.341871050148361865E-31, 1.000000000000000000, 1.222128052721181665E-16 ) ) ;
#111 = VERTEX_POINT ( 'NONE', #142 ) ;
#112 = DIRECTION ( 'NONE',  ( 4.275831445896958607E-31, 1.000000000000000000, 1.224646799147353207E-16 ) ) ;
#113 = CLOSED_SHELL ( 'NONE', ( #87, #162, #31, #233 ) ) ;
#114 = CLOSED_SHELL ( 'NONE', ( #12, #224, #196, #152, #15 ) ) ;
#115 = DIRECTION ( 'NONE',  ( -3.491481338843133355E-15, 1.224646799147353207E-16, -1.000000000000000000 ) ) ;
#116 = VERTEX_POINT ( 'NONE', #192 ) ;
#117 = DIRECTION ( 'NONE',  ( -4.275831445896958607E-31, -1.000000000000000000, -1.224646799147353207E-16 ) ) ;
#118 = FACE_BOUND ( 'NONE', #183, .T. ) ;
#119 = DIRECTION ( 'NONE',  ( 0.0000000000000000000, 1.000000000000000000, 0.0000000000000000000 ) ) ;
#120 = ORIENTED_EDGE ( 'NONE', *, *, #181, .F. ) ;
#121 = CC_DESIGN_DATE_AND_TIME_ASSIGNMENT ( #187, #214, ( #17 ) ) ;
#122 = ORIENTED_EDGE ( 'NONE', *, *, #54, .T. ) ;
#123 = AXIS2_PLACEMENT_3D ( 'NONE', #77, #135, #150 ) ;
#124 = DESIGN_CONTEXT ( 'detailed design', #169, 'design' ) ;
#125 = APPROVAL ( #19, 'UNSPECIFIED' ) ;
#126 = AXIS2_PLACEMENT_3D ( 'NONE', #188, #213, #191 ) ;
#127 = COORDINATED_UNIVERSAL_TIME_OFFSET ( 1, 0, .AHEAD. ) ;
#128 = ORIENTED_EDGE ( 'NONE', *, *, #145, .T. ) ;
#129 = APPROVAL_STATUS ( 'not_yet_approved' ) ;
#130 = FACE_OUTER_BOUND ( 'NONE', #146, .T. ) ;
#131 = APPROVAL_PERSON_ORGANIZATION ( #41, #125, #167 ) ;
#132 = FACE_OUTER_BOUND ( 'NONE', #85, .T. ) ;
#133 = APPROVAL_DATE_TIME ( #57, #84 ) ;
#134 = CC_DESIGN_PERSON_AND_ORGANIZATION_ASSIGNMENT ( #9, #82, ( #198 ) ) ;
#135 = DIRECTION ( 'NONE',  ( -3.491481338843133355E-15, 1.224646799147353207E-16, -1.000000000000000000 ) ) ;
#136 = APPLICATION_PROTOCOL_DEFINITION ( 'international standard', 'config_control_design', 1994, #169 ) ;
#137 = CALENDAR_DATE ( 2021, 30, 11 ) ;
#138 = CYLINDRICAL_SURFACE ( 'NONE', #55, 3.104999999999998206 ) ;
#139 = AXIS2_PLACEMENT_3D ( 'NONE', #195, #27, #39 ) ;
#140 = CARTESIAN_POINT ( 'NONE',  ( 2.182175836776958284E-13, 2.499999999999992450, 62.50000000000000000 ) ) ;
#141 = CARTESIAN_POINT ( 'NONE',  ( 7.681258945454893382E-14, 2.328377062582529584E-32, 22.00000000000000000 ) ) ;
#142 = CARTESIAN_POINT ( 'NONE',  ( 2.199633243471174140E-13, 1.999999999999992228, 63.00000000000000000 ) ) ;
#143 = ORIENTED_EDGE ( 'NONE', *, *, #181, .T. ) ;
#144 = CARTESIAN_POINT ( 'NONE',  ( 8.047128041344473298E-14, -2.822552562009893356E-15, 23.04789073857919135 ) ) ;
#145 = EDGE_CURVE ( 'NONE', #111, #111, #25, .T. ) ;
#146 = EDGE_LOOP ( 'NONE', ( #235 ) ) ;
#147 = EDGE_LOOP ( 'NONE', ( #49 ) ) ;
#148 = AXIS2_PLACEMENT_3D ( 'NONE', #73, #94, #53 ) ;
#149 = CARTESIAN_POINT ( 'NONE',  ( 7.681258945454893382E-14, -2.694222958124176809E-15, 22.00000000000000000 ) ) ;
#150 = DIRECTION ( 'NONE',  ( 0.0000000000000000000, 1.000000000000000000, 0.0000000000000000000 ) ) ;
#151 = FACE_BOUND ( 'NONE', #220, .T. ) ;
#152 = ADVANCED_FACE ( 'NONE', ( #52, #151 ), #11, .T. ) ;
#153 = APPROVAL_DATE_TIME ( #76, #48 ) ;
#154 = DIRECTION ( 'NONE',  ( -4.275831445896958607E-31, -1.000000000000000000, -1.224646799147353207E-16 ) ) ;
#155 = CARTESIAN_POINT ( 'NONE',  ( 8.047128041344473298E-14, 2.499999999999992450, 23.04789073857919135 ) ) ;
#156 = DIRECTION ( 'NONE',  ( -3.491481338843133355E-15, 1.224646799147353207E-16, -1.000000000000000000 ) ) ;
#157 =( NAMED_UNIT ( * ) SI_UNIT ( $, .STERADIAN. ) SOLID_ANGLE_UNIT ( ) );
#158 = VERTEX_POINT ( 'NONE', #155 ) ;
#159 = CC_DESIGN_APPROVAL ( #125, ( #17 ) ) ;
#160 = VERTEX_POINT ( 'NONE', #229 ) ;
#161 = COORDINATED_UNIVERSAL_TIME_OFFSET ( 1, 0, .AHEAD. ) ;
#162 = ADVANCED_FACE ( 'NONE', ( #168, #216 ), #51, .T. ) ;
#163 = AXIS2_PLACEMENT_3D ( 'NONE', #20, #36, #42 ) ;
#164 = DIRECTION ( 'NONE',  ( 4.275831445896959482E-31, 1.000000000000000000, 1.224646799147353454E-16 ) ) ;
#165 = CC_DESIGN_PERSON_AND_ORGANIZATION_ASSIGNMENT ( #35, #105, ( #17 ) ) ;
#166 =( GEOMETRIC_REPRESENTATION_CONTEXT ( 3 ) GLOBAL_UNCERTAINTY_ASSIGNED_CONTEXT ( ( #102 ) ) GLOBAL_UNIT_ASSIGNED_CONTEXT ( ( #24, #5, #157 ) ) REPRESENTATION_CONTEXT ( 'NONE', 'WORKASPACE' ) );
#167 = APPROVAL_ROLE ( '' ) ;
#168 = FACE_BOUND ( 'NONE', #88, .T. ) ;
#169 = APPLICATION_CONTEXT ( 'configuration controlled 3d designs of mechanical parts and assemblies' ) ;
#170 = CALENDAR_DATE ( 2021, 30, 11 ) ;
#171 = DIRECTION ( 'NONE',  ( 0.0000000000000000000, 1.000000000000000000, 0.0000000000000000000 ) ) ;
#172 = APPROVAL_ROLE ( '' ) ;
#173 = FACE_OUTER_BOUND ( 'NONE', #63, .T. ) ;
#174 = AXIS2_PLACEMENT_3D ( 'NONE', #144, #237, #46 ) ;
#175 = FACE_OUTER_BOUND ( 'NONE', #65, .T. ) ;
#176 = PERSON ( 'UNSPECIFIED', 'UNSPECIFIED', 'UNSPECIFIED', ('UNSPECIFIED'), ('UNSPECIFIED'), ('UNSPECIFIED') ) ;
#177 = VERTEX_POINT ( 'NONE', #30 ) ;
#178 = APPROVAL_PERSON_ORGANIZATION ( #3, #48, #172 ) ;
#179 = VERTEX_POINT ( 'NONE', #140 ) ;
#180 = DIRECTION ( 'NONE',  ( 0.0000000000000000000, 0.0000000000000000000, 1.000000000000000000 ) ) ;
#181 = EDGE_CURVE ( 'NONE', #116, #116, #16, .T. ) ;
#182 = APPROVAL_PERSON_ORGANIZATION ( #197, #84, #234 ) ;
#183 = EDGE_LOOP ( 'NONE', ( #100 ) ) ;
#184 = AXIS2_PLACEMENT_3D ( 'NONE', #228, #240, #110 ) ;
#185 = CC_DESIGN_SECURITY_CLASSIFICATION ( #17, ( #83 ) ) ;
#186 = LOCAL_TIME ( 16, 17, 27.00000000000000000, #127 ) ;
#187 = DATE_AND_TIME ( #210, #206 ) ;
#188 = CARTESIAN_POINT ( 'NONE',  ( 2.182175836776958284E-13, -7.654042494670957804E-15, 62.50000000000000000 ) ) ;
#189 = SHAPE_DEFINITION_REPRESENTATION ( #212, #8 ) ;
#190 = PLANE ( 'NONE',  #148 ) ;
#191 = DIRECTION ( 'NONE',  ( 0.0000000000000000000, 1.000000000000000000, 0.0000000000000000000 ) ) ;
#192 = CARTESIAN_POINT ( 'NONE',  ( 7.681258945454893382E-14, 3.104999999999996874, 22.00000000000000000 ) ) ;
#193 = PLANE ( 'NONE',  #86 ) ;
#194 = CALENDAR_DATE ( 2021, 30, 11 ) ;
#195 = CARTESIAN_POINT ( 'NONE',  ( 1.047444401652938823E-15, -3.673940397442055800E-17, 0.2999999999999996558 ) ) ;
#196 = ADVANCED_FACE ( 'NONE', ( #130, #108 ), #29, .T. ) ;
#197 = PERSON_AND_ORGANIZATION ( #176, #60 ) ;
#198 = PRODUCT ( '969458', '969458', '', ( #59 ) ) ;
#199 = CC_DESIGN_PERSON_AND_ORGANIZATION_ASSIGNMENT ( #28, #96, ( #90 ) ) ;
#200 = ORIENTED_EDGE ( 'NONE', *, *, #145, .F. ) ;
#201 = FACE_OUTER_BOUND ( 'NONE', #204, .T. ) ;
#202 = EDGE_LOOP ( 'NONE', ( #200 ) ) ;
#203 = CC_DESIGN_APPROVAL ( #84, ( #90 ) ) ;
#204 = EDGE_LOOP ( 'NONE', ( #66 ) ) ;
#205 = AXIS2_PLACEMENT_3D ( 'NONE', #7, #180, #45 ) ;
#206 = LOCAL_TIME ( 16, 17, 27.00000000000000000, #78 ) ;
#207 = PERSON_AND_ORGANIZATION_ROLE ( 'creator' ) ;
#208 = ORIENTED_EDGE ( 'NONE', *, *, #215, .T. ) ;
#209 = EDGE_CURVE ( 'NONE', #160, #160, #104, .T. ) ;
#210 = CALENDAR_DATE ( 2021, 30, 11 ) ;
#211 = COORDINATED_UNIVERSAL_TIME_OFFSET ( 1, 0, .AHEAD. ) ;
#212 = PRODUCT_DEFINITION_SHAPE ( 'NONE', 'NONE',  #90 ) ;
#213 = DIRECTION ( 'NONE',  ( -3.491481338843133355E-15, 1.224646799147353207E-16, -1.000000000000000000 ) ) ;
#214 = DATE_TIME_ROLE ( 'classification_date' ) ;
#215 = EDGE_CURVE ( 'NONE', #177, #177, #223, .T. ) ;
#216 = FACE_OUTER_BOUND ( 'NONE', #147, .T. ) ;
#217 = DIRECTION ( 'NONE',  ( 3.491481338843133355E-15, -1.224646799147353207E-16, 1.000000000000000000 ) ) ;
#218 = DIRECTION ( 'NONE',  ( -3.491481338843133355E-15, 1.224646799147353207E-16, -1.000000000000000000 ) ) ;
#219 = AXIS2_PLACEMENT_3D ( 'NONE', #56, #106, #154 ) ;
#220 = EDGE_LOOP ( 'NONE', ( #128 ) ) ;
#221 = CC_DESIGN_APPROVAL ( #48, ( #83 ) ) ;
#222 = EDGE_LOOP ( 'NONE', ( #143 ) ) ;
#223 = CIRCLE ( 'NONE', #1, 3.104999999999999094 ) ;
#224 = ADVANCED_FACE ( 'NONE', ( #81, #118 ), #10, .T. ) ;
#225 = FACE_OUTER_BOUND ( 'NONE', #222, .T. ) ;
#226 = DIRECTION ( 'NONE',  ( -3.491481338843133355E-15, 1.224646799147353207E-16, -1.000000000000000000 ) ) ;
#227 = AXIS2_PLACEMENT_3D ( 'NONE', #231, #115, #112 ) ;
#228 = CARTESIAN_POINT ( 'NONE',  ( 1.047444401652938823E-15, -3.673940397442055800E-17, 0.2999999999999996558 ) ) ;
#229 = CARTESIAN_POINT ( 'NONE',  ( 1.047444401652940007E-15, 3.104999999999997318, 0.3000000000000000444 ) ) ;
#230 = PERSON_AND_ORGANIZATION ( #176, #60 ) ;
#231 = CARTESIAN_POINT ( 'NONE',  ( -4.422763900208329167E-31, 1.551296750040553925E-32, -1.266729926637318763E-16 ) ) ;
#232 = APPLICATION_PROTOCOL_DEFINITION ( 'international standard', 'config_control_design', 1994, #103 ) ;
#233 = ADVANCED_FACE ( 'NONE', ( #201 ), #62, .T. ) ;
#234 = APPROVAL_ROLE ( '' ) ;
#235 = ORIENTED_EDGE ( 'NONE', *, *, #61, .F. ) ;
#236 = ORIENTED_EDGE ( 'NONE', *, *, #209, .F. ) ;
#237 = DIRECTION ( 'NONE',  ( -3.491481338843133355E-15, 1.224646799147353207E-16, -1.000000000000000000 ) ) ;
#238 = ORIENTED_EDGE ( 'NONE', *, *, #101, .T. ) ;
#239 = CIRCLE ( 'NONE', #126, 2.500000000000000000 ) ;
#240 = DIRECTION ( 'NONE',  ( -3.491481338843133355E-15, 1.224646799147353207E-16, -1.000000000000000000 ) ) ;
#241 = LOCAL_TIME ( 16, 17, 27.00000000000000000, #161 ) ;
#242 = COORDINATED_UNIVERSAL_TIME_OFFSET ( 1, 0, .AHEAD. ) ;
#243 = CARTESIAN_POINT ( 'NONE',  ( 7.681258945454893382E-14, -2.694222958124176809E-15, 22.00000000000000000 ) ) ;
ENDSEC;
END-ISO-10303-21;
