ISO-10303-21;
HEADER;
FILE_DESCRIPTION (( 'STEP AP203' ),
    '1' );
FILE_NAME ('969457.step',
    '2021-11-30T15:17:27',
    ( '' ),
    ( '' ),
    'SwSTEP 2.0',
    'SolidWorks 2019',
    '' );
FILE_SCHEMA (( 'CONFIG_CONTROL_DESIGN' ));
ENDSEC;

DATA;
#1 = CALENDAR_DATE ( 2021, 30, 11 ) ;
#2 = DIRECTION ( 'NONE',  ( -3.491481338843133355E-15, 1.224646799147353207E-16, -1.000000000000000000 ) ) ;
#3 = PLANE ( 'NONE',  #147 ) ;
#4 = PERSON_AND_ORGANIZATION_ROLE ( 'design_supplier' ) ;
#5 = APPROVAL ( #189, 'UNSPECIFIED' ) ;
#6 = CC_DESIGN_APPROVAL ( #94, ( #122 ) ) ;
#7 = FACE_OUTER_BOUND ( 'NONE', #193, .T. ) ;
#8 = MECHANICAL_CONTEXT ( 'NONE', #56, 'mechanical' ) ;
#9 = CC_DESIGN_DATE_AND_TIME_ASSIGNMENT ( #74, #17, ( #122 ) ) ;
#10 = ORIENTED_EDGE ( 'NONE', *, *, #32, .T. ) ;
#11 = FACE_OUTER_BOUND ( 'NONE', #215, .T. ) ;
#12 = DIRECTION ( 'NONE',  ( -3.491481338843133355E-15, 1.224646799147353207E-16, -1.000000000000000000 ) ) ;
#13 = DATE_AND_TIME ( #180, #22 ) ;
#14 = DIRECTION ( 'NONE',  ( 4.412932769463391787E-31, 1.000000000000000000, 1.242130148510398886E-16 ) ) ;
#15 = FACE_OUTER_BOUND ( 'NONE', #129, .T. ) ;
#16 = VERTEX_POINT ( 'NONE', #95 ) ;
#17 = DATE_TIME_ROLE ( 'creation_date' ) ;
#18 = CC_DESIGN_PERSON_AND_ORGANIZATION_ASSIGNMENT ( #80, #55, ( #51 ) ) ;
#19 = CYLINDRICAL_SURFACE ( 'NONE', #206, 3.054999999999999716 ) ;
#20 = DIRECTION ( 'NONE',  ( -3.491481338843133355E-15, 1.224646799147353207E-16, -1.000000000000000000 ) ) ;
#21 = APPROVAL_PERSON_ORGANIZATION ( #111, #230, #68 ) ;
#22 = LOCAL_TIME ( 16, 17, 27.00000000000000000, #183 ) ;
#23 = AXIS2_PLACEMENT_3D ( 'NONE', #61, #66, #14 ) ;
#24 = CONICAL_SURFACE ( 'NONE', #176, 2.499999999999994671, 0.5235987755982941527 ) ;
#25 = DIRECTION ( 'NONE',  ( -3.491481338843133355E-15, 1.224646799147353207E-16, -1.000000000000000000 ) ) ;
#26 = EDGE_LOOP ( 'NONE', ( #233 ) ) ;
#27 = CONICAL_SURFACE ( 'NONE', #231, 3.054999999999997495, 0.7853981633974435050 ) ;
#28 = ORIENTED_EDGE ( 'NONE', *, *, #197, .T. ) ;
#29 = DIRECTION ( 'NONE',  ( 0.0000000000000000000, 1.000000000000000000, 0.0000000000000000000 ) ) ;
#30 = APPROVAL_STATUS ( 'not_yet_approved' ) ;
#31 = EDGE_LOOP ( 'NONE', ( #28 ) ) ;
#32 = EDGE_CURVE ( 'NONE', #185, #185, #237, .T. ) ;
#33 = DIRECTION ( 'NONE',  ( 0.0000000000000000000, 1.000000000000000000, 0.0000000000000000000 ) ) ;
#34 = CARTESIAN_POINT ( 'NONE',  ( 2.182175836776958284E-13, -7.654042494670957804E-15, 62.50000000000000000 ) ) ;
#35 = APPROVAL_STATUS ( 'not_yet_approved' ) ;
#36 = EDGE_CURVE ( 'NONE', #50, #50, #227, .T. ) ;
#37 = CARTESIAN_POINT ( 'NONE',  ( 8.016890925981698255E-14, 2.499999999999992450, 22.96128819820074796 ) ) ;
#38 = APPROVAL_DATE_TIME ( #224, #5 ) ;
#39 = CARTESIAN_POINT ( 'NONE',  ( -2.104486163956738823E-31, 7.381543804537297014E-33, -6.027487933399750027E-17 ) ) ;
#40 = CALENDAR_DATE ( 2021, 30, 11 ) ;
#41 = DATE_TIME_ROLE ( 'classification_date' ) ;
#42 = CLOSED_SHELL ( 'NONE', ( #116, #191, #181, #77 ) ) ;
#43 = ORIENTED_EDGE ( 'NONE', *, *, #197, .F. ) ;
#44 = APPLICATION_CONTEXT ( 'configuration controlled 3d designs of mechanical parts and assemblies' ) ;
#45 = CARTESIAN_POINT ( 'NONE',  ( 2.199633243471174140E-13, -7.715274834628325378E-15, 63.00000000000000000 ) ) ;
#46 = AXIS2_PLACEMENT_3D ( 'NONE', #219, #171, #134 ) ;
#47 = ORIENTED_EDGE ( 'NONE', *, *, #104, .F. ) ;
#48 = CC_DESIGN_PERSON_AND_ORGANIZATION_ASSIGNMENT ( #228, #4, ( #103 ) ) ;
#49 = EDGE_LOOP ( 'NONE', ( #239 ) ) ;
#50 = VERTEX_POINT ( 'NONE', #97 ) ;
#51 = SECURITY_CLASSIFICATION ( '', '', #156 ) ;
#52 = CARTESIAN_POINT ( 'NONE',  ( 2.182175836776958284E-13, 2.499999999999992450, 62.50000000000000000 ) ) ;
#53 = CIRCLE ( 'NONE', #46, 2.499999999999994671 ) ;
#54 = FACE_OUTER_BOUND ( 'NONE', #236, .T. ) ;
#55 = PERSON_AND_ORGANIZATION_ROLE ( 'classification_officer' ) ;
#56 = APPLICATION_CONTEXT ( 'configuration controlled 3d designs of mechanical parts and assemblies' ) ;
#57 = DIRECTION ( 'NONE',  ( 1.000000000000000000, 0.0000000000000000000, 0.0000000000000000000 ) ) ;
#58 = CIRCLE ( 'NONE', #163, 2.000000000000000000 ) ;
#59 = ADVANCED_FACE ( 'NONE', ( #178 ), #113, .F. ) ;
#60 = AXIS2_PLACEMENT_3D ( 'NONE', #112, #12, #89 ) ;
#61 = CARTESIAN_POINT ( 'NONE',  ( 1.047444401652938823E-15, -3.673940397442055800E-17, 0.2999999999999996558 ) ) ;
#62 = ADVANCED_FACE ( 'NONE', ( #11, #63 ), #24, .T. ) ;
#63 = FACE_BOUND ( 'NONE', #218, .T. ) ;
#64 = FACE_OUTER_BOUND ( 'NONE', #164, .T. ) ;
#65 = CLOSED_SHELL ( 'NONE', ( #174, #62, #84, #142, #59 ) ) ;
#66 = DIRECTION ( 'NONE',  ( -3.491481338843133355E-15, 1.224646799147353207E-16, -1.000000000000000000 ) ) ;
#67 = CARTESIAN_POINT ( 'NONE',  ( 7.681258945454893382E-14, 2.290883068015984786E-32, 22.00000000000000000 ) ) ;
#68 = APPROVAL_ROLE ( '' ) ;
#69 = PERSON ( 'UNSPECIFIED', 'UNSPECIFIED', 'UNSPECIFIED', ('UNSPECIFIED'), ('UNSPECIFIED'), ('UNSPECIFIED') ) ;
#70 = CARTESIAN_POINT ( 'NONE',  ( 7.681258945454893382E-14, 2.290883068015984786E-32, 22.00000000000000000 ) ) ;
#71 = CC_DESIGN_PERSON_AND_ORGANIZATION_ASSIGNMENT ( #172, #76, ( #103 ) ) ;
#72 = CALENDAR_DATE ( 2021, 30, 11 ) ;
#73 = CARTESIAN_POINT ( 'NONE',  ( 2.199633243471174140E-13, 1.999999999999992228, 63.00000000000000000 ) ) ;
#74 = DATE_AND_TIME ( #40, #213 ) ;
#75 = DIRECTION ( 'NONE',  ( -4.275831445896958607E-31, -1.000000000000000000, -1.224646799147353207E-16 ) ) ;
#76 = PERSON_AND_ORGANIZATION_ROLE ( 'creator' ) ;
#77 = ADVANCED_FACE ( 'NONE', ( #7 ), #182, .T. ) ;
#78 = APPROVAL_PERSON_ORGANIZATION ( #102, #5, #99 ) ;
#79 = CARTESIAN_POINT ( 'NONE',  ( 1.047444401652940007E-15, 3.054999999999997495, 0.3000000000000000444 ) ) ;
#80 = PERSON_AND_ORGANIZATION ( #69, #192 ) ;
#81 = PRODUCT ( '969457', '969457', '', ( #8 ) ) ;
#82 = CC_DESIGN_PERSON_AND_ORGANIZATION_ASSIGNMENT ( #226, #188, ( #122 ) ) ;
#83 = APPROVAL_PERSON_ORGANIZATION ( #120, #94, #118 ) ;
#84 = ADVANCED_FACE ( 'NONE', ( #149, #64 ), #220, .T. ) ;
#85 = ORIENTED_EDGE ( 'NONE', *, *, #36, .F. ) ;
#86 = LOCAL_TIME ( 16, 17, 27.00000000000000000, #139 ) ;
#87 = DIRECTION ( 'NONE',  ( -3.491481338843133355E-15, 1.224646799147353207E-16, -1.000000000000000000 ) ) ;
#88 = DIRECTION ( 'NONE',  ( -3.491481338843133355E-15, 1.224646799147353207E-16, -1.000000000000000000 ) ) ;
#89 = DIRECTION ( 'NONE',  ( 0.0000000000000000000, 1.000000000000000000, 0.0000000000000000000 ) ) ;
#90 = APPROVAL_DATE_TIME ( #13, #230 ) ;
#91 = ORIENTED_EDGE ( 'NONE', *, *, #109, .F. ) ;
#92 = SHAPE_DEFINITION_REPRESENTATION ( #158, #173 ) ;
#93 = VERTEX_POINT ( 'NONE', #73 ) ;
#94 = APPROVAL ( #35, 'UNSPECIFIED' ) ;
#95 = CARTESIAN_POINT ( 'NONE',  ( 7.681258945454893382E-14, 3.054999999999998828, 22.00000000000000000 ) ) ;
#96 = CIRCLE ( 'NONE', #184, 3.055000000000001492 ) ;
#97 = CARTESIAN_POINT ( 'NONE',  ( 7.570943305532645426E-31, 2.755000000000000338, 2.168404344971008868E-16 ) ) ;
#98 =( NAMED_UNIT ( * ) SI_UNIT ( $, .STERADIAN. ) SOLID_ANGLE_UNIT ( ) );
#99 = APPROVAL_ROLE ( '' ) ;
#100 = EDGE_CURVE ( 'NONE', #93, #93, #58, .T. ) ;
#101 = DIRECTION ( 'NONE',  ( 0.0000000000000000000, 1.000000000000000000, 0.0000000000000000000 ) ) ;
#102 = PERSON_AND_ORGANIZATION ( #69, #192 ) ;
#103 = PRODUCT_DEFINITION_FORMATION_WITH_SPECIFIED_SOURCE ( 'ANY', '', #81, .NOT_KNOWN. ) ;
#104 = EDGE_CURVE ( 'NONE', #150, #150, #211, .T. ) ;
#105 = AXIS2_PLACEMENT_3D ( 'NONE', #160, #88, #146 ) ;
#106 = EDGE_LOOP ( 'NONE', ( #91 ) ) ;
#107 = CARTESIAN_POINT ( 'NONE',  ( -4.208972327913477646E-31, 1.476308760907459403E-32, -1.205497586679950005E-16 ) ) ;
#108 = CONICAL_SURFACE ( 'NONE', #241, 2.000000000000000000, 0.7853981633974479459 ) ;
#109 = EDGE_CURVE ( 'NONE', #223, #223, #53, .T. ) ;
#110 = EDGE_LOOP ( 'NONE', ( #85 ) ) ;
#111 = PERSON_AND_ORGANIZATION ( #69, #192 ) ;
#112 = CARTESIAN_POINT ( 'NONE',  ( 7.681258945454893382E-14, -2.694222958124176809E-15, 22.00000000000000000 ) ) ;
#113 = PLANE ( 'NONE',  #114 ) ;
#114 = AXIS2_PLACEMENT_3D ( 'NONE', #161, #25, #132 ) ;
#115 = DIRECTION ( 'NONE',  ( -4.275831445896958607E-31, -1.000000000000000000, -1.224646799147353207E-16 ) ) ;
#116 = ADVANCED_FACE ( 'NONE', ( #165 ), #3, .F. ) ;
#117 = CARTESIAN_POINT ( 'NONE',  ( 7.681258945454893382E-14, 3.054999999999998828, 22.00000000000000000 ) ) ;
#118 = APPROVAL_ROLE ( '' ) ;
#119 = CARTESIAN_POINT ( 'NONE',  ( 1.047444401652938823E-15, -3.673940397442055800E-17, 0.2999999999999996558 ) ) ;
#120 = PERSON_AND_ORGANIZATION ( #69, #192 ) ;
#121 = LOCAL_TIME ( 16, 17, 27.00000000000000000, #169 ) ;
#122 = PRODUCT_DEFINITION ( 'UNKNOWN', '', #103, #234 ) ;
#123 = DIRECTION ( 'NONE',  ( -4.412932769463391787E-31, -1.000000000000000000, -1.242130148510398886E-16 ) ) ;
#124 = DIRECTION ( 'NONE',  ( 0.0000000000000000000, 0.0000000000000000000, 1.000000000000000000 ) ) ;
#125 = COORDINATED_UNIVERSAL_TIME_OFFSET ( 1, 0, .AHEAD. ) ;
#126 = AXIS2_PLACEMENT_3D ( 'NONE', #209, #124, #57 ) ;
#127 = EDGE_CURVE ( 'NONE', #221, #221, #217, .T. ) ;
#128 = DIRECTION ( 'NONE',  ( -4.275831445896958607E-31, -1.000000000000000000, -1.224646799147353207E-16 ) ) ;
#129 = EDGE_LOOP ( 'NONE', ( #199 ) ) ;
#130 = UNCERTAINTY_MEASURE_WITH_UNIT (LENGTH_MEASURE( 1.000000000000000082E-05 ), #151, 'distance_accuracy_value', 'NONE');
#131 = DIRECTION ( 'NONE',  ( -3.491481338843133355E-15, 1.224646799147353207E-16, -1.000000000000000000 ) ) ;
#132 = DIRECTION ( 'NONE',  ( 4.275831445896958607E-31, 1.000000000000000000, 1.224646799147353207E-16 ) ) ;
#133 = DIRECTION ( 'NONE',  ( 0.0000000000000000000, 1.000000000000000000, 0.0000000000000000000 ) ) ;
#134 = DIRECTION ( 'NONE',  ( 0.0000000000000000000, 1.000000000000000000, 0.0000000000000000000 ) ) ;
#135 = LOCAL_TIME ( 16, 17, 27.00000000000000000, #125 ) ;
#136 = FACE_OUTER_BOUND ( 'NONE', #49, .T. ) ;
#137 = AXIS2_PLACEMENT_3D ( 'NONE', #107, #87, #177 ) ;
#138 = FACE_BOUND ( 'NONE', #110, .T. ) ;
#139 = COORDINATED_UNIVERSAL_TIME_OFFSET ( 1, 0, .AHEAD. ) ;
#140 = CC_DESIGN_PERSON_AND_ORGANIZATION_ASSIGNMENT ( #210, #167, ( #81 ) ) ;
#141 = AXIS2_PLACEMENT_3D ( 'NONE', #70, #166, #115 ) ;
#142 = ADVANCED_FACE ( 'NONE', ( #136, #243 ), #108, .T. ) ;
#143 = AXIS2_PLACEMENT_3D ( 'NONE', #67, #145, #128 ) ;
#144 = DIRECTION ( 'NONE',  ( -3.491481338843133355E-15, 1.224646799147353207E-16, -1.000000000000000000 ) ) ;
#145 = DIRECTION ( 'NONE',  ( 3.491481338843133355E-15, -1.224646799147353207E-16, 1.000000000000000000 ) ) ;
#146 = DIRECTION ( 'NONE',  ( 4.275831445896959482E-31, 1.000000000000000000, 1.224646799147353454E-16 ) ) ;
#147 = AXIS2_PLACEMENT_3D ( 'NONE', #39, #200, #75 ) ;
#148 = PRODUCT_RELATED_PRODUCT_CATEGORY ( 'detail', '', ( #81 ) ) ;
#149 = FACE_OUTER_BOUND ( 'NONE', #106, .T. ) ;
#150 = VERTEX_POINT ( 'NONE', #117 ) ;
#151 =( LENGTH_UNIT ( ) NAMED_UNIT ( * ) SI_UNIT ( .MILLI., .METRE. ) );
#152 = DIRECTION ( 'NONE',  ( -3.491481338843133355E-15, 1.224646799147353207E-16, -1.000000000000000000 ) ) ;
#153 = MANIFOLD_SOLID_BREP ( 'Corps-Déplacer/Copier1[1]', #65 ) ;
#154 = CC_DESIGN_APPROVAL ( #230, ( #51 ) ) ;
#155 = DIRECTION ( 'NONE',  ( 4.275831445896957731E-31, 1.000000000000000000, 1.224646799147353207E-16 ) ) ;
#156 = SECURITY_CLASSIFICATION_LEVEL ( 'unclassified' ) ;
#157 = DATE_AND_TIME ( #208, #86 ) ;
#158 = PRODUCT_DEFINITION_SHAPE ( 'NONE', 'NONE',  #122 ) ;
#159 = CC_DESIGN_APPROVAL ( #5, ( #103 ) ) ;
#160 = CARTESIAN_POINT ( 'NONE',  ( 0.0000000000000000000, 0.0000000000000000000, 0.0000000000000000000 ) ) ;
#161 = CARTESIAN_POINT ( 'NONE',  ( 2.199633243471174140E-13, 1.499759782661846113E-32, 63.00000000000000000 ) ) ;
#162 = EDGE_LOOP ( 'NONE', ( #10 ) ) ;
#163 = AXIS2_PLACEMENT_3D ( 'NONE', #45, #131, #29 ) ;
#164 = EDGE_LOOP ( 'NONE', ( #196 ) ) ;
#165 = FACE_OUTER_BOUND ( 'NONE', #238, .T. ) ;
#166 = DIRECTION ( 'NONE',  ( 3.491481338843133355E-15, -1.224646799147353207E-16, 1.000000000000000000 ) ) ;
#167 = PERSON_AND_ORGANIZATION_ROLE ( 'design_owner' ) ;
#168 = CARTESIAN_POINT ( 'NONE',  ( 2.199633243471174140E-13, -7.715274834628325378E-15, 63.00000000000000000 ) ) ;
#169 = COORDINATED_UNIVERSAL_TIME_OFFSET ( 1, 0, .AHEAD. ) ;
#170 = APPLICATION_PROTOCOL_DEFINITION ( 'international standard', 'config_control_design', 1994, #56 ) ;
#171 = DIRECTION ( 'NONE',  ( -3.491481338843133355E-15, 1.224646799147353207E-16, -1.000000000000000000 ) ) ;
#172 = PERSON_AND_ORGANIZATION ( #69, #192 ) ;
#173 = ADVANCED_BREP_SHAPE_REPRESENTATION ( '969457', ( #153, #235, #126 ), #229 ) ;
#174 = ADVANCED_FACE ( 'NONE', ( #54 ), #201, .F. ) ;
#175 = CARTESIAN_POINT ( 'NONE',  ( 8.016890925981698255E-14, -2.811946809622644097E-15, 22.96128819820074796 ) ) ;
#176 = AXIS2_PLACEMENT_3D ( 'NONE', #175, #144, #133 ) ;
#177 = DIRECTION ( 'NONE',  ( 4.275831445896958607E-31, 1.000000000000000000, 1.224646799147353454E-16 ) ) ;
#178 = FACE_OUTER_BOUND ( 'NONE', #214, .T. ) ;
#179 = ORIENTED_EDGE ( 'NONE', *, *, #36, .T. ) ;
#180 = CALENDAR_DATE ( 2021, 30, 11 ) ;
#181 = ADVANCED_FACE ( 'NONE', ( #15, #190 ), #19, .T. ) ;
#182 = PLANE ( 'NONE',  #143 ) ;
#183 = COORDINATED_UNIVERSAL_TIME_OFFSET ( 1, 0, .AHEAD. ) ;
#184 = AXIS2_PLACEMENT_3D ( 'NONE', #203, #20, #101 ) ;
#185 = VERTEX_POINT ( 'NONE', #79 ) ;
#186 = DIRECTION ( 'NONE',  ( 0.0000000000000000000, 1.000000000000000000, 0.0000000000000000000 ) ) ;
#187 = COORDINATED_UNIVERSAL_TIME_OFFSET ( 1, 0, .AHEAD. ) ;
#188 = PERSON_AND_ORGANIZATION_ROLE ( 'creator' ) ;
#189 = APPROVAL_STATUS ( 'not_yet_approved' ) ;
#190 = FACE_OUTER_BOUND ( 'NONE', #31, .T. ) ;
#191 = ADVANCED_FACE ( 'NONE', ( #138, #225 ), #27, .T. ) ;
#192 = ORGANIZATION ( 'UNSPECIFIED', 'UNSPECIFIED', '' ) ;
#193 = EDGE_LOOP ( 'NONE', ( #43 ) ) ;
#194 = ORIENTED_EDGE ( 'NONE', *, *, #109, .T. ) ;
#195 = AXIS2_PLACEMENT_3D ( 'NONE', #34, #240, #33 ) ;
#196 = ORIENTED_EDGE ( 'NONE', *, *, #127, .T. ) ;
#197 = EDGE_CURVE ( 'NONE', #16, #16, #96, .T. ) ;
#198 = ORIENTED_EDGE ( 'NONE', *, *, #100, .F. ) ;
#199 = ORIENTED_EDGE ( 'NONE', *, *, #32, .F. ) ;
#200 = DIRECTION ( 'NONE',  ( 3.491481338843133355E-15, -1.224646799147353207E-16, 1.000000000000000000 ) ) ;
#201 = PLANE ( 'NONE',  #141 ) ;
#202 = APPLICATION_PROTOCOL_DEFINITION ( 'international standard', 'config_control_design', 1994, #44 ) ;
#203 = CARTESIAN_POINT ( 'NONE',  ( 7.681258945454893382E-14, -2.694222958124176809E-15, 22.00000000000000000 ) ) ;
#204 = CARTESIAN_POINT ( 'NONE',  ( 0.0000000000000000000, 0.0000000000000000000, 0.0000000000000000000 ) ) ;
#205 = DATE_AND_TIME ( #1, #121 ) ;
#206 = AXIS2_PLACEMENT_3D ( 'NONE', #204, #2, #155 ) ;
#207 = DIRECTION ( 'NONE',  ( 3.491481338843133355E-15, -1.224646799147353207E-16, 1.000000000000000000 ) ) ;
#208 = CALENDAR_DATE ( 2021, 30, 11 ) ;
#209 = CARTESIAN_POINT ( 'NONE',  ( 0.0000000000000000000, 0.0000000000000000000, 0.0000000000000000000 ) ) ;
#210 = PERSON_AND_ORGANIZATION ( #69, #192 ) ;
#211 = CIRCLE ( 'NONE', #60, 3.055000000000001492 ) ;
#212 = CC_DESIGN_SECURITY_CLASSIFICATION ( #51, ( #103 ) ) ;
#213 = LOCAL_TIME ( 16, 17, 27.00000000000000000, #187 ) ;
#214 = EDGE_LOOP ( 'NONE', ( #198 ) ) ;
#215 = EDGE_LOOP ( 'NONE', ( #47 ) ) ;
#216 = CC_DESIGN_DATE_AND_TIME_ASSIGNMENT ( #157, #41, ( #51 ) ) ;
#217 = CIRCLE ( 'NONE', #195, 2.500000000000000000 ) ;
#218 = EDGE_LOOP ( 'NONE', ( #194 ) ) ;
#219 = CARTESIAN_POINT ( 'NONE',  ( 8.016890925981698255E-14, -2.811946809622644097E-15, 22.96128819820074796 ) ) ;
#220 = CYLINDRICAL_SURFACE ( 'NONE', #105, 2.499999999999997335 ) ;
#221 = VERTEX_POINT ( 'NONE', #52 ) ;
#222 =( NAMED_UNIT ( * ) PLANE_ANGLE_UNIT ( ) SI_UNIT ( $, .RADIAN. ) );
#223 = VERTEX_POINT ( 'NONE', #37 ) ;
#224 = DATE_AND_TIME ( #72, #135 ) ;
#225 = FACE_OUTER_BOUND ( 'NONE', #162, .T. ) ;
#226 = PERSON_AND_ORGANIZATION ( #69, #192 ) ;
#227 = CIRCLE ( 'NONE', #137, 2.755000000000000338 ) ;
#228 = PERSON_AND_ORGANIZATION ( #69, #192 ) ;
#229 =( GEOMETRIC_REPRESENTATION_CONTEXT ( 3 ) GLOBAL_UNCERTAINTY_ASSIGNED_CONTEXT ( ( #130 ) ) GLOBAL_UNIT_ASSIGNED_CONTEXT ( ( #151, #222, #98 ) ) REPRESENTATION_CONTEXT ( 'NONE', 'WORKASPACE' ) );
#230 = APPROVAL ( #30, 'UNSPECIFIED' ) ;
#231 = AXIS2_PLACEMENT_3D ( 'NONE', #119, #207, #123 ) ;
#232 = ORIENTED_EDGE ( 'NONE', *, *, #104, .T. ) ;
#233 = ORIENTED_EDGE ( 'NONE', *, *, #100, .T. ) ;
#234 = DESIGN_CONTEXT ( 'detailed design', #44, 'design' ) ;
#235 = MANIFOLD_SOLID_BREP ( 'Corps-Déplacer/Copier1[2]', #42 ) ;
#236 = EDGE_LOOP ( 'NONE', ( #232 ) ) ;
#237 = CIRCLE ( 'NONE', #23, 3.054999999999997495 ) ;
#238 = EDGE_LOOP ( 'NONE', ( #179 ) ) ;
#239 = ORIENTED_EDGE ( 'NONE', *, *, #127, .F. ) ;
#240 = DIRECTION ( 'NONE',  ( -3.491481338843133355E-15, 1.224646799147353207E-16, -1.000000000000000000 ) ) ;
#241 = AXIS2_PLACEMENT_3D ( 'NONE', #168, #152, #186 ) ;
#242 = APPROVAL_DATE_TIME ( #205, #94 ) ;
#243 = FACE_BOUND ( 'NONE', #26, .T. ) ;
ENDSEC;
END-ISO-10303-21;
