ISO-10303-21;
HEADER;
FILE_DESCRIPTION (( 'STEP AP203' ),
    '1' );
FILE_NAME ('969456.step',
    '2021-11-30T15:17:26',
    ( '' ),
    ( '' ),
    'SwSTEP 2.0',
    'SolidWorks 2019',
    '' );
FILE_SCHEMA (( 'CONFIG_CONTROL_DESIGN' ));
ENDSEC;

DATA;
#1 = DIRECTION ( 'NONE',  ( 0.0000000000000000000, 1.000000000000000000, 0.0000000000000000000 ) ) ;
#2 = PERSON_AND_ORGANIZATION_ROLE ( 'design_owner' ) ;
#3 = ORIENTED_EDGE ( 'NONE', *, *, #224, .F. ) ;
#4 = PRODUCT_DEFINITION_SHAPE ( 'NONE', 'NONE',  #28 ) ;
#5 = CARTESIAN_POINT ( 'NONE',  ( 2.182175836776958284E-13, 2.499999999999992450, 62.50000000000000000 ) ) ;
#6 = ORIENTED_EDGE ( 'NONE', *, *, #40, .T. ) ;
#7 = AXIS2_PLACEMENT_3D ( 'NONE', #37, #18, #205 ) ;
#8 = CARTESIAN_POINT ( 'NONE',  ( 7.681258945454893382E-14, 3.003999999999999559, 22.00000000000000000 ) ) ;
#9 = CC_DESIGN_DATE_AND_TIME_ASSIGNMENT ( #181, #93, ( #28 ) ) ;
#10 = EDGE_LOOP ( 'NONE', ( #141 ) ) ;
#11 = APPROVAL_STATUS ( 'not_yet_approved' ) ;
#12 = CALENDAR_DATE ( 2021, 30, 11 ) ;
#13 = DIRECTION ( 'NONE',  ( 0.0000000000000000000, 1.000000000000000000, 0.0000000000000000000 ) ) ;
#14 = CARTESIAN_POINT ( 'NONE',  ( 2.182175836776958284E-13, -7.654042494670957804E-15, 62.50000000000000000 ) ) ;
#15 = DIRECTION ( 'NONE',  ( -3.491481338843133355E-15, 1.224646799147353207E-16, -1.000000000000000000 ) ) ;
#16 = CIRCLE ( 'NONE', #59, 2.704000000000000625 ) ;
#17 = CARTESIAN_POINT ( 'NONE',  ( 2.199633243471174140E-13, 1.499759782661846113E-32, 63.00000000000000000 ) ) ;
#18 = DIRECTION ( 'NONE',  ( -3.491481338843133355E-15, 1.224646799147353207E-16, -1.000000000000000000 ) ) ;
#19 = DATE_AND_TIME ( #178, #209 ) ;
#20 = CIRCLE ( 'NONE', #123, 2.000000000000000000 ) ;
#21 = ADVANCED_FACE ( 'NONE', ( #230 ), #61, .F. ) ;
#22 = APPROVAL_PERSON_ORGANIZATION ( #96, #206, #159 ) ;
#23 = CLOSED_SHELL ( 'NONE', ( #21, #119, #171, #72, #80 ) ) ;
#24 = FACE_OUTER_BOUND ( 'NONE', #189, .T. ) ;
#25 = AXIS2_PLACEMENT_3D ( 'NONE', #14, #78, #208 ) ;
#26 = EDGE_LOOP ( 'NONE', ( #33 ) ) ;
#27 = DIRECTION ( 'NONE',  ( 0.0000000000000000000, 1.000000000000000000, 0.0000000000000000000 ) ) ;
#28 = PRODUCT_DEFINITION ( 'UNKNOWN', '', #207, #228 ) ;
#29 = CALENDAR_DATE ( 2021, 30, 11 ) ;
#30 = LOCAL_TIME ( 16, 17, 26.00000000000000000, #166 ) ;
#31 = ORIENTED_EDGE ( 'NONE', *, *, #186, .T. ) ;
#32 = COORDINATED_UNIVERSAL_TIME_OFFSET ( 1, 0, .AHEAD. ) ;
#33 = ORIENTED_EDGE ( 'NONE', *, *, #219, .F. ) ;
#34 = APPROVAL_ROLE ( '' ) ;
#35 = COORDINATED_UNIVERSAL_TIME_OFFSET ( 1, 0, .AHEAD. ) ;
#36 = MANIFOLD_SOLID_BREP ( 'Corps-Déplacer/Copier1[2]', #94 ) ;
#37 = CARTESIAN_POINT ( 'NONE',  ( 0.0000000000000000000, 0.0000000000000000000, 0.0000000000000000000 ) ) ;
#38 = CYLINDRICAL_SURFACE ( 'NONE', #7, 2.499999999999997335 ) ;
#39 = PRODUCT_RELATED_PRODUCT_CATEGORY ( 'detail', '', ( #41 ) ) ;
#40 = EDGE_CURVE ( 'NONE', #191, #191, #16, .T. ) ;
#41 = PRODUCT ( '969456', '969456', '', ( #67 ) ) ;
#42 =( LENGTH_UNIT ( ) NAMED_UNIT ( * ) SI_UNIT ( .MILLI., .METRE. ) );
#43 = FACE_BOUND ( 'NONE', #49, .T. ) ;
#44 = VERTEX_POINT ( 'NONE', #90 ) ;
#45 = COORDINATED_UNIVERSAL_TIME_OFFSET ( 1, 0, .AHEAD. ) ;
#46 = DIRECTION ( 'NONE',  ( -4.275831445896958607E-31, -1.000000000000000000, -1.224646799147353207E-16 ) ) ;
#47 = VERTEX_POINT ( 'NONE', #121 ) ;
#48 = EDGE_LOOP ( 'NONE', ( #176 ) ) ;
#49 = EDGE_LOOP ( 'NONE', ( #124 ) ) ;
#50 = DATE_TIME_ROLE ( 'classification_date' ) ;
#51 = FACE_BOUND ( 'NONE', #227, .T. ) ;
#52 = DIRECTION ( 'NONE',  ( 4.487852733259208709E-31, 1.000000000000000000, 1.263218243574989645E-16 ) ) ;
#53 = CC_DESIGN_SECURITY_CLASSIFICATION ( #241, ( #207 ) ) ;
#54 = DIRECTION ( 'NONE',  ( 4.275831445896958607E-31, 1.000000000000000000, 1.224646799147353207E-16 ) ) ;
#55 = CC_DESIGN_PERSON_AND_ORGANIZATION_ASSIGNMENT ( #101, #2, ( #41 ) ) ;
#56 = EDGE_CURVE ( 'NONE', #136, #136, #20, .T. ) ;
#57 = CARTESIAN_POINT ( 'NONE',  ( 1.047444401652938429E-15, -3.673940397442053952E-17, 0.2999999999999995448 ) ) ;
#58 = LOCAL_TIME ( 16, 17, 26.00000000000000000, #35 ) ;
#59 = AXIS2_PLACEMENT_3D ( 'NONE', #192, #158, #233 ) ;
#60 = DIRECTION ( 'NONE',  ( 3.491481338843133355E-15, -1.224646799147353207E-16, 1.000000000000000000 ) ) ;
#61 = PLANE ( 'NONE',  #155 ) ;
#62 = CYLINDRICAL_SURFACE ( 'NONE', #144, 3.003999999999999559 ) ;
#63 = CC_DESIGN_APPROVAL ( #206, ( #207 ) ) ;
#64 = DATE_AND_TIME ( #29, #146 ) ;
#65 = DIRECTION ( 'NONE',  ( 0.0000000000000000000, 0.0000000000000000000, 1.000000000000000000 ) ) ;
#66 = ORIENTED_EDGE ( 'NONE', *, *, #202, .T. ) ;
#67 = MECHANICAL_CONTEXT ( 'NONE', #222, 'mechanical' ) ;
#68 = CARTESIAN_POINT ( 'NONE',  ( 2.199633243471174140E-13, -7.715274834628325378E-15, 63.00000000000000000 ) ) ;
#69 = CALENDAR_DATE ( 2021, 30, 11 ) ;
#70 = SHAPE_DEFINITION_REPRESENTATION ( #4, #142 ) ;
#71 = CARTESIAN_POINT ( 'NONE',  ( -9.566395767619013870E-31, 3.355439946321812248E-32, -2.739924644932726741E-16 ) ) ;
#72 = ADVANCED_FACE ( 'NONE', ( #104, #43 ), #196, .T. ) ;
#73 = SECURITY_CLASSIFICATION_LEVEL ( 'unclassified' ) ;
#74 = LOCAL_TIME ( 16, 17, 26.00000000000000000, #197 ) ;
#75 = AXIS2_PLACEMENT_3D ( 'NONE', #200, #113, #179 ) ;
#76 = ADVANCED_FACE ( 'NONE', ( #185, #242 ), #150, .T. ) ;
#77 = CC_DESIGN_PERSON_AND_ORGANIZATION_ASSIGNMENT ( #217, #177, ( #207 ) ) ;
#78 = DIRECTION ( 'NONE',  ( -3.491481338843133355E-15, 1.224646799147353207E-16, -1.000000000000000000 ) ) ;
#79 = APPROVAL ( #231, 'UNSPECIFIED' ) ;
#80 = ADVANCED_FACE ( 'NONE', ( #115 ), #182, .F. ) ;
#81 = AXIS2_PLACEMENT_3D ( 'NONE', #17, #160, #54 ) ;
#82 = DIRECTION ( 'NONE',  ( 3.491481338843133355E-15, -1.224646799147353207E-16, 1.000000000000000000 ) ) ;
#83 = CARTESIAN_POINT ( 'NONE',  ( -7.570943305532647177E-31, 2.704000000000000625, -2.168404344971009361E-16 ) ) ;
#84 = EDGE_LOOP ( 'NONE', ( #102 ) ) ;
#85 = UNCERTAINTY_MEASURE_WITH_UNIT (LENGTH_MEASURE( 1.000000000000000082E-05 ), #42, 'distance_accuracy_value', 'NONE');
#86 = PERSON_AND_ORGANIZATION ( #198, #161 ) ;
#87 = ORIENTED_EDGE ( 'NONE', *, *, #138, .F. ) ;
#88 = ORIENTED_EDGE ( 'NONE', *, *, #224, .T. ) ;
#89 = CIRCLE ( 'NONE', #223, 3.003999999999997339 ) ;
#90 = CARTESIAN_POINT ( 'NONE',  ( 7.986049068311667585E-14, 2.499999999999992450, 22.87295360701473612 ) ) ;
#91 = CARTESIAN_POINT ( 'NONE',  ( 7.681258945454893382E-14, 2.252639193558108288E-32, 22.00000000000000000 ) ) ;
#92 = APPROVAL_DATE_TIME ( #19, #206 ) ;
#93 = DATE_TIME_ROLE ( 'creation_date' ) ;
#94 = CLOSED_SHELL ( 'NONE', ( #99, #76, #134, #238 ) ) ;
#95 = CARTESIAN_POINT ( 'NONE',  ( 7.681258945454893382E-14, -2.694222958124176809E-15, 22.00000000000000000 ) ) ;
#96 = PERSON_AND_ORGANIZATION ( #198, #161 ) ;
#97 = PERSON_AND_ORGANIZATION_ROLE ( 'creator' ) ;
#98 = PLANE ( 'NONE',  #116 ) ;
#99 = ADVANCED_FACE ( 'NONE', ( #109 ), #98, .F. ) ;
#100 = FACE_OUTER_BOUND ( 'NONE', #127, .T. ) ;
#101 = PERSON_AND_ORGANIZATION ( #198, #161 ) ;
#102 = ORIENTED_EDGE ( 'NONE', *, *, #40, .F. ) ;
#103 = APPLICATION_PROTOCOL_DEFINITION ( 'international standard', 'config_control_design', 1994, #240 ) ;
#104 = FACE_OUTER_BOUND ( 'NONE', #26, .T. ) ;
#105 = PLANE ( 'NONE',  #106 ) ;
#106 = AXIS2_PLACEMENT_3D ( 'NONE', #226, #60, #126 ) ;
#107 = EDGE_LOOP ( 'NONE', ( #214 ) ) ;
#108 = PERSON_AND_ORGANIZATION ( #198, #161 ) ;
#109 = FACE_OUTER_BOUND ( 'NONE', #128, .T. ) ;
#110 = CC_DESIGN_PERSON_AND_ORGANIZATION_ASSIGNMENT ( #201, #234, ( #241 ) ) ;
#111 = DATE_AND_TIME ( #69, #30 ) ;
#112 = DIRECTION ( 'NONE',  ( -3.491481338843133355E-15, 1.224646799147353207E-16, -1.000000000000000000 ) ) ;
#113 = DIRECTION ( 'NONE',  ( -3.491481338843133355E-15, 1.224646799147353207E-16, -1.000000000000000000 ) ) ;
#114 = DIRECTION ( 'NONE',  ( -3.491481338843133355E-15, 1.224646799147353207E-16, -1.000000000000000000 ) ) ;
#115 = FACE_OUTER_BOUND ( 'NONE', #107, .T. ) ;
#116 = AXIS2_PLACEMENT_3D ( 'NONE', #71, #204, #235 ) ;
#117 =( GEOMETRIC_REPRESENTATION_CONTEXT ( 3 ) GLOBAL_UNCERTAINTY_ASSIGNED_CONTEXT ( ( #85 ) ) GLOBAL_UNIT_ASSIGNED_CONTEXT ( ( #42, #157, #188 ) ) REPRESENTATION_CONTEXT ( 'NONE', 'WORKASPACE' ) );
#118 = DIRECTION ( 'NONE',  ( -4.487852733259208709E-31, -1.000000000000000000, -1.263218243574989645E-16 ) ) ;
#119 = ADVANCED_FACE ( 'NONE', ( #218, #51 ), #183, .T. ) ;
#120 = CC_DESIGN_PERSON_AND_ORGANIZATION_ASSIGNMENT ( #108, #97, ( #207 ) ) ;
#121 = CARTESIAN_POINT ( 'NONE',  ( 1.047444401652939612E-15, 3.003999999999997339, 0.2999999999999999334 ) ) ;
#122 = VERTEX_POINT ( 'NONE', #174 ) ;
#123 = AXIS2_PLACEMENT_3D ( 'NONE', #68, #216, #27 ) ;
#124 = ORIENTED_EDGE ( 'NONE', *, *, #56, .T. ) ;
#125 = DIRECTION ( 'NONE',  ( 1.000000000000000000, 0.0000000000000000000, 0.0000000000000000000 ) ) ;
#126 = DIRECTION ( 'NONE',  ( -4.275831445896958607E-31, -1.000000000000000000, -1.224646799147353207E-16 ) ) ;
#127 = EDGE_LOOP ( 'NONE', ( #66 ) ) ;
#128 = EDGE_LOOP ( 'NONE', ( #6 ) ) ;
#129 = PERSON_AND_ORGANIZATION ( #198, #161 ) ;
#130 = DIRECTION ( 'NONE',  ( -3.491481338843133355E-15, 1.224646799147353207E-16, -1.000000000000000000 ) ) ;
#131 = FACE_OUTER_BOUND ( 'NONE', #153, .T. ) ;
#132 = CARTESIAN_POINT ( 'NONE',  ( 1.047444401652938429E-15, -3.673940397442053952E-17, 0.2999999999999995448 ) ) ;
#133 = CIRCLE ( 'NONE', #25, 2.500000000000000000 ) ;
#134 = ADVANCED_FACE ( 'NONE', ( #24, #100 ), #62, .T. ) ;
#135 = FACE_OUTER_BOUND ( 'NONE', #48, .T. ) ;
#136 = VERTEX_POINT ( 'NONE', #213 ) ;
#137 = PERSON_AND_ORGANIZATION_ROLE ( 'creator' ) ;
#138 = EDGE_CURVE ( 'NONE', #47, #47, #89, .T. ) ;
#139 = DIRECTION ( 'NONE',  ( 3.491481338843133355E-15, -1.224646799147353207E-16, 1.000000000000000000 ) ) ;
#140 = APPROVAL_ROLE ( '' ) ;
#141 = ORIENTED_EDGE ( 'NONE', *, *, #138, .T. ) ;
#142 = ADVANCED_BREP_SHAPE_REPRESENTATION ( '969456', ( #190, #36, #236 ), #117 ) ;
#143 = CALENDAR_DATE ( 2021, 30, 11 ) ;
#144 = AXIS2_PLACEMENT_3D ( 'NONE', #165, #180, #220 ) ;
#145 = CARTESIAN_POINT ( 'NONE',  ( 7.986049068311667585E-14, -2.801128942187650539E-15, 22.87295360701473612 ) ) ;
#146 = LOCAL_TIME ( 16, 17, 26.00000000000000000, #45 ) ;
#147 = AXIS2_PLACEMENT_3D ( 'NONE', #95, #114, #164 ) ;
#148 = AXIS2_PLACEMENT_3D ( 'NONE', #145, #112, #13 ) ;
#149 = CARTESIAN_POINT ( 'NONE',  ( 2.199633243471174140E-13, -7.715274834628325378E-15, 63.00000000000000000 ) ) ;
#150 = CONICAL_SURFACE ( 'NONE', #184, 3.003999999999997339, 0.7853981633974428389 ) ;
#151 = APPLICATION_PROTOCOL_DEFINITION ( 'international standard', 'config_control_design', 1994, #222 ) ;
#152 = ORIENTED_EDGE ( 'NONE', *, *, #219, .T. ) ;
#153 = EDGE_LOOP ( 'NONE', ( #3 ) ) ;
#154 = APPROVAL_PERSON_ORGANIZATION ( #129, #168, #34 ) ;
#155 = AXIS2_PLACEMENT_3D ( 'NONE', #91, #139, #46 ) ;
#156 = EDGE_LOOP ( 'NONE', ( #232 ) ) ;
#157 =( NAMED_UNIT ( * ) PLANE_ANGLE_UNIT ( ) SI_UNIT ( $, .RADIAN. ) );
#158 = DIRECTION ( 'NONE',  ( -3.491481338843133355E-15, 1.224646799147353207E-16, -1.000000000000000000 ) ) ;
#159 = APPROVAL_ROLE ( '' ) ;
#160 = DIRECTION ( 'NONE',  ( -3.491481338843133355E-15, 1.224646799147353207E-16, -1.000000000000000000 ) ) ;
#161 = ORGANIZATION ( 'UNSPECIFIED', 'UNSPECIFIED', '' ) ;
#162 = DATE_AND_TIME ( #12, #58 ) ;
#163 = CIRCLE ( 'NONE', #210, 2.499999999999994671 ) ;
#164 = DIRECTION ( 'NONE',  ( 0.0000000000000000000, 1.000000000000000000, 0.0000000000000000000 ) ) ;
#165 = CARTESIAN_POINT ( 'NONE',  ( 0.0000000000000000000, 0.0000000000000000000, 0.0000000000000000000 ) ) ;
#166 = COORDINATED_UNIVERSAL_TIME_OFFSET ( 1, 0, .AHEAD. ) ;
#167 = CARTESIAN_POINT ( 'NONE',  ( 7.986049068311667585E-14, -2.801128942187650539E-15, 22.87295360701473612 ) ) ;
#168 = APPROVAL ( #199, 'UNSPECIFIED' ) ;
#169 = CC_DESIGN_APPROVAL ( #79, ( #28 ) ) ;
#170 = CIRCLE ( 'NONE', #147, 3.004000000000002224 ) ;
#171 = ADVANCED_FACE ( 'NONE', ( #131, #203 ), #38, .T. ) ;
#172 = CARTESIAN_POINT ( 'NONE',  ( 0.0000000000000000000, 0.0000000000000000000, 0.0000000000000000000 ) ) ;
#173 = EDGE_LOOP ( 'NONE', ( #31 ) ) ;
#174 = CARTESIAN_POINT ( 'NONE',  ( 7.681258945454893382E-14, 3.003999999999999559, 22.00000000000000000 ) ) ;
#175 = CIRCLE ( 'NONE', #75, 3.004000000000002224 ) ;
#176 = ORIENTED_EDGE ( 'NONE', *, *, #202, .F. ) ;
#177 = PERSON_AND_ORGANIZATION_ROLE ( 'design_supplier' ) ;
#178 = CALENDAR_DATE ( 2021, 30, 11 ) ;
#179 = DIRECTION ( 'NONE',  ( 0.0000000000000000000, 1.000000000000000000, 0.0000000000000000000 ) ) ;
#180 = DIRECTION ( 'NONE',  ( -3.491481338843133355E-15, 1.224646799147353207E-16, -1.000000000000000000 ) ) ;
#181 = DATE_AND_TIME ( #143, #74 ) ;
#182 = PLANE ( 'NONE',  #81 ) ;
#183 = CONICAL_SURFACE ( 'NONE', #148, 2.499999999999994671, 0.5235987755982942637 ) ;
#184 = AXIS2_PLACEMENT_3D ( 'NONE', #57, #82, #118 ) ;
#185 = FACE_BOUND ( 'NONE', #84, .T. ) ;
#186 = EDGE_CURVE ( 'NONE', #122, #122, #170, .T. ) ;
#187 = VERTEX_POINT ( 'NONE', #8 ) ;
#188 =( NAMED_UNIT ( * ) SI_UNIT ( $, .STERADIAN. ) SOLID_ANGLE_UNIT ( ) );
#189 = EDGE_LOOP ( 'NONE', ( #87 ) ) ;
#190 = MANIFOLD_SOLID_BREP ( 'Corps-Déplacer/Copier1[1]', #23 ) ;
#191 = VERTEX_POINT ( 'NONE', #83 ) ;
#192 = CARTESIAN_POINT ( 'NONE',  ( -1.913279153523802774E-30, 6.710879892643624497E-32, -5.479849289865453482E-16 ) ) ;
#193 = PERSON_AND_ORGANIZATION ( #198, #161 ) ;
#194 = EDGE_LOOP ( 'NONE', ( #152 ) ) ;
#195 = CC_DESIGN_APPROVAL ( #168, ( #241 ) ) ;
#196 = CONICAL_SURFACE ( 'NONE', #239, 2.000000000000000000, 0.7853981633974479459 ) ;
#197 = COORDINATED_UNIVERSAL_TIME_OFFSET ( 1, 0, .AHEAD. ) ;
#198 = PERSON ( 'UNSPECIFIED', 'UNSPECIFIED', 'UNSPECIFIED', ('UNSPECIFIED'), ('UNSPECIFIED'), ('UNSPECIFIED') ) ;
#199 = APPROVAL_STATUS ( 'not_yet_approved' ) ;
#200 = CARTESIAN_POINT ( 'NONE',  ( 7.681258945454893382E-14, -2.694222958124176809E-15, 22.00000000000000000 ) ) ;
#201 = PERSON_AND_ORGANIZATION ( #198, #161 ) ;
#202 = EDGE_CURVE ( 'NONE', #187, #187, #175, .T. ) ;
#203 = FACE_OUTER_BOUND ( 'NONE', #194, .T. ) ;
#204 = DIRECTION ( 'NONE',  ( 3.491481338843133355E-15, -1.224646799147353207E-16, 1.000000000000000000 ) ) ;
#205 = DIRECTION ( 'NONE',  ( 4.275831445896959482E-31, 1.000000000000000000, 1.224646799147353454E-16 ) ) ;
#206 = APPROVAL ( #11, 'UNSPECIFIED' ) ;
#207 = PRODUCT_DEFINITION_FORMATION_WITH_SPECIFIED_SOURCE ( 'ANY', '', #41, .NOT_KNOWN. ) ;
#208 = DIRECTION ( 'NONE',  ( 0.0000000000000000000, 1.000000000000000000, 0.0000000000000000000 ) ) ;
#209 = LOCAL_TIME ( 16, 17, 26.00000000000000000, #32 ) ;
#210 = AXIS2_PLACEMENT_3D ( 'NONE', #167, #130, #243 ) ;
#211 = CC_DESIGN_DATE_AND_TIME_ASSIGNMENT ( #111, #50, ( #241 ) ) ;
#212 = VERTEX_POINT ( 'NONE', #5 ) ;
#213 = CARTESIAN_POINT ( 'NONE',  ( 2.199633243471174140E-13, 1.999999999999992228, 63.00000000000000000 ) ) ;
#214 = ORIENTED_EDGE ( 'NONE', *, *, #56, .F. ) ;
#215 = APPROVAL_DATE_TIME ( #64, #79 ) ;
#216 = DIRECTION ( 'NONE',  ( -3.491481338843133355E-15, 1.224646799147353207E-16, -1.000000000000000000 ) ) ;
#217 = PERSON_AND_ORGANIZATION ( #198, #161 ) ;
#218 = FACE_OUTER_BOUND ( 'NONE', #156, .T. ) ;
#219 = EDGE_CURVE ( 'NONE', #212, #212, #133, .T. ) ;
#220 = DIRECTION ( 'NONE',  ( 4.275831445896958607E-31, 1.000000000000000000, 1.224646799147353207E-16 ) ) ;
#221 = CC_DESIGN_PERSON_AND_ORGANIZATION_ASSIGNMENT ( #193, #137, ( #28 ) ) ;
#222 = APPLICATION_CONTEXT ( 'configuration controlled 3d designs of mechanical parts and assemblies' ) ;
#223 = AXIS2_PLACEMENT_3D ( 'NONE', #132, #15, #52 ) ;
#224 = EDGE_CURVE ( 'NONE', #44, #44, #163, .T. ) ;
#225 = DIRECTION ( 'NONE',  ( -3.491481338843133355E-15, 1.224646799147353207E-16, -1.000000000000000000 ) ) ;
#226 = CARTESIAN_POINT ( 'NONE',  ( 7.681258945454893382E-14, 2.252639193558108288E-32, 22.00000000000000000 ) ) ;
#227 = EDGE_LOOP ( 'NONE', ( #88 ) ) ;
#228 = DESIGN_CONTEXT ( 'detailed design', #240, 'design' ) ;
#229 = APPROVAL_PERSON_ORGANIZATION ( #86, #79, #140 ) ;
#230 = FACE_OUTER_BOUND ( 'NONE', #173, .T. ) ;
#231 = APPROVAL_STATUS ( 'not_yet_approved' ) ;
#232 = ORIENTED_EDGE ( 'NONE', *, *, #186, .F. ) ;
#233 = DIRECTION ( 'NONE',  ( 4.275831445896958607E-31, 1.000000000000000000, 1.224646799147353207E-16 ) ) ;
#234 = PERSON_AND_ORGANIZATION_ROLE ( 'classification_officer' ) ;
#235 = DIRECTION ( 'NONE',  ( -4.275831445896958607E-31, -1.000000000000000000, -1.224646799147353207E-16 ) ) ;
#236 = AXIS2_PLACEMENT_3D ( 'NONE', #172, #65, #125 ) ;
#237 = APPROVAL_DATE_TIME ( #162, #168 ) ;
#238 = ADVANCED_FACE ( 'NONE', ( #135 ), #105, .T. ) ;
#239 = AXIS2_PLACEMENT_3D ( 'NONE', #149, #225, #1 ) ;
#240 = APPLICATION_CONTEXT ( 'configuration controlled 3d designs of mechanical parts and assemblies' ) ;
#241 = SECURITY_CLASSIFICATION ( '', '', #73 ) ;
#242 = FACE_OUTER_BOUND ( 'NONE', #10, .T. ) ;
#243 = DIRECTION ( 'NONE',  ( 0.0000000000000000000, 1.000000000000000000, 0.0000000000000000000 ) ) ;
ENDSEC;
END-ISO-10303-21;
