ISO-10303-21;
HEADER;
FILE_DESCRIPTION (( 'STEP AP203' ),
    '1' );
FILE_NAME ('969455.step',
    '2021-11-30T14:58:59',
    ( '' ),
    ( '' ),
    'SwSTEP 2.0',
    'SolidWorks 2019',
    '' );
FILE_SCHEMA (( 'CONFIG_CONTROL_DESIGN' ));
ENDSEC;

DATA;
#1 = EDGE_CURVE ( 'NONE', #243, #243, #171, .T. ) ;
#2 = MECHANICAL_CONTEXT ( 'NONE', #125, 'mechanical' ) ;
#3 = COORDINATED_UNIVERSAL_TIME_OFFSET ( 1, 0, .AHEAD. ) ;
#4 = MANIFOLD_SOLID_BREP ( 'Corps-Déplacer/Copier1[2]', #68 ) ;
#5 = PERSON_AND_ORGANIZATION ( #18, #72 ) ;
#6 = CC_DESIGN_APPROVAL ( #234, ( #218 ) ) ;
#7 = CALENDAR_DATE ( 2021, 30, 11 ) ;
#8 = ORIENTED_EDGE ( 'NONE', *, *, #213, .T. ) ;
#9 = DATE_TIME_ROLE ( 'classification_date' ) ;
#10 = ADVANCED_FACE ( 'NONE', ( #69 ), #127, .F. ) ;
#11 = ORIENTED_EDGE ( 'NONE', *, *, #64, .F. ) ;
#12 = DIRECTION ( 'NONE',  ( -4.275831445896958607E-31, -1.000000000000000000, -1.224646799147353207E-16 ) ) ;
#13 = LOCAL_TIME ( 15, 58, 59.00000000000000000, #3 ) ;
#14 = CARTESIAN_POINT ( 'NONE',  ( 7.955811952948891279E-14, -2.790523189800400491E-15, 22.78635106663628562 ) ) ;
#15 = CARTESIAN_POINT ( 'NONE',  ( 7.681258945454893382E-14, -2.694222958124176809E-15, 22.00000000000000000 ) ) ;
#16 = FACE_BOUND ( 'NONE', #105, .T. ) ;
#17 = APPROVAL_ROLE ( '' ) ;
#18 = PERSON ( 'UNSPECIFIED', 'UNSPECIFIED', 'UNSPECIFIED', ('UNSPECIFIED'), ('UNSPECIFIED'), ('UNSPECIFIED') ) ;
#19 = VERTEX_POINT ( 'NONE', #74 ) ;
#20 = COORDINATED_UNIVERSAL_TIME_OFFSET ( 1, 0, .AHEAD. ) ;
#21 = DATE_AND_TIME ( #23, #66 ) ;
#22 = EDGE_CURVE ( 'NONE', #170, #170, #166, .T. ) ;
#23 = CALENDAR_DATE ( 2021, 30, 11 ) ;
#24 = EDGE_LOOP ( 'NONE', ( #136 ) ) ;
#25 = PERSON_AND_ORGANIZATION_ROLE ( 'creator' ) ;
#26 = EDGE_LOOP ( 'NONE', ( #219 ) ) ;
#27 = LOCAL_TIME ( 15, 58, 59.00000000000000000, #177 ) ;
#28 = CYLINDRICAL_SURFACE ( 'NONE', #191, 2.499999999999997335 ) ;
#29 = ADVANCED_FACE ( 'NONE', ( #189, #129 ), #204, .T. ) ;
#30 = CARTESIAN_POINT ( 'NONE',  ( 7.681258945454893382E-14, 2.215145198991562121E-32, 22.00000000000000000 ) ) ;
#31 = LOCAL_TIME ( 15, 58, 59.00000000000000000, #220 ) ;
#32 = DIRECTION ( 'NONE',  ( 4.275831445896958607E-31, 1.000000000000000000, 1.224646799147352961E-16 ) ) ;
#33 = ADVANCED_FACE ( 'NONE', ( #224, #46 ), #28, .T. ) ;
#34 = CARTESIAN_POINT ( 'NONE',  ( 2.199633243471174140E-13, -7.715274834628325378E-15, 63.00000000000000000 ) ) ;
#35 = DIRECTION ( 'NONE',  ( -3.491481338843133355E-15, 1.224646799147353207E-16, -1.000000000000000000 ) ) ;
#36 = CARTESIAN_POINT ( 'NONE',  ( 7.681258945454893382E-14, 2.954000000000000181, 22.00000000000000000 ) ) ;
#37 = AXIS2_PLACEMENT_3D ( 'NONE', #15, #205, #86 ) ;
#38 = ADVANCED_FACE ( 'NONE', ( #47, #130 ), #211, .T. ) ;
#39 = CARTESIAN_POINT ( 'NONE',  ( 7.955811952948891279E-14, 2.499999999999992450, 22.78635106663628562 ) ) ;
#40 = AXIS2_PLACEMENT_3D ( 'NONE', #71, #202, #162 ) ;
#41 = ORIENTED_EDGE ( 'NONE', *, *, #213, .F. ) ;
#42 = CARTESIAN_POINT ( 'NONE',  ( 2.182175836776958284E-13, -7.654042494670957804E-15, 62.50000000000000000 ) ) ;
#43 = ORIENTED_EDGE ( 'NONE', *, *, #1, .F. ) ;
#44 = DIRECTION ( 'NONE',  ( 3.491481338843133355E-15, -1.224646799147353207E-16, 1.000000000000000000 ) ) ;
#45 = AXIS2_PLACEMENT_3D ( 'NONE', #187, #144, #32 ) ;
#46 = FACE_OUTER_BOUND ( 'NONE', #154, .T. ) ;
#47 = FACE_OUTER_BOUND ( 'NONE', #120, .T. ) ;
#48 = CARTESIAN_POINT ( 'NONE',  ( 2.199633243471174140E-13, 1.499759782661846113E-32, 63.00000000000000000 ) ) ;
#49 = AXIS2_PLACEMENT_3D ( 'NONE', #89, #35, #184 ) ;
#50 = DIRECTION ( 'NONE',  ( -3.491481338843133355E-15, 1.224646799147353207E-16, -1.000000000000000000 ) ) ;
#51 = PERSON_AND_ORGANIZATION_ROLE ( 'creator' ) ;
#52 = CARTESIAN_POINT ( 'NONE',  ( 1.047444401652940007E-15, 2.953999999999997517, 0.3000000000000000444 ) ) ;
#53 = AXIS2_PLACEMENT_3D ( 'NONE', #14, #50, #188 ) ;
#54 = APPLICATION_PROTOCOL_DEFINITION ( 'international standard', 'config_control_design', 1994, #58 ) ;
#55 = CC_DESIGN_PERSON_AND_ORGANIZATION_ASSIGNMENT ( #160, #137, ( #218 ) ) ;
#56 = DATE_AND_TIME ( #73, #13 ) ;
#57 = CALENDAR_DATE ( 2021, 30, 11 ) ;
#58 = APPLICATION_CONTEXT ( 'configuration controlled 3d designs of mechanical parts and assemblies' ) ;
#59 = AXIS2_PLACEMENT_3D ( 'NONE', #70, #44, #90 ) ;
#60 = CONICAL_SURFACE ( 'NONE', #106, 2.953999999999997517, 0.7853981633974431720 ) ;
#61 = EDGE_LOOP ( 'NONE', ( #157 ) ) ;
#62 = APPROVAL_ROLE ( '' ) ;
#63 = EDGE_LOOP ( 'NONE', ( #118 ) ) ;
#64 = EDGE_CURVE ( 'NONE', #229, #229, #175, .T. ) ;
#65 = FACE_OUTER_BOUND ( 'NONE', #181, .T. ) ;
#66 = LOCAL_TIME ( 15, 58, 59.00000000000000000, #94 ) ;
#67 = DIRECTION ( 'NONE',  ( -3.491481338843133355E-15, 1.224646799147353207E-16, -1.000000000000000000 ) ) ;
#68 = CLOSED_SHELL ( 'NONE', ( #10, #230, #29, #146 ) ) ;
#69 = FACE_OUTER_BOUND ( 'NONE', #26, .T. ) ;
#70 = CARTESIAN_POINT ( 'NONE',  ( -5.674028328705265397E-31, 1.990181231592285670E-32, -1.625106302468538175E-16 ) ) ;
#71 = CARTESIAN_POINT ( 'NONE',  ( 1.047444401652938823E-15, -3.673940397442055800E-17, 0.2999999999999996558 ) ) ;
#72 = ORGANIZATION ( 'UNSPECIFIED', 'UNSPECIFIED', '' ) ;
#73 = CALENDAR_DATE ( 2021, 30, 11 ) ;
#74 = CARTESIAN_POINT ( 'NONE',  ( -1.710569414459005214E-46, 2.654000000000000359, 0.0000000000000000000 ) ) ;
#75 = CARTESIAN_POINT ( 'NONE',  ( 7.681258945454893382E-14, 2.954000000000000181, 22.00000000000000000 ) ) ;
#76 = VERTEX_POINT ( 'NONE', #36 ) ;
#77 = UNCERTAINTY_MEASURE_WITH_UNIT (LENGTH_MEASURE( 1.000000000000000082E-05 ), #149, 'distance_accuracy_value', 'NONE');
#78 = PRODUCT_DEFINITION_SHAPE ( 'NONE', 'NONE',  #232 ) ;
#79 = ORIENTED_EDGE ( 'NONE', *, *, #22, .F. ) ;
#80 = DATE_AND_TIME ( #7, #31 ) ;
#81 = ORIENTED_EDGE ( 'NONE', *, *, #1, .T. ) ;
#82 = APPROVAL_PERSON_ORGANIZATION ( #122, #234, #62 ) ;
#83 = PERSON_AND_ORGANIZATION_ROLE ( 'design_supplier' ) ;
#84 = CC_DESIGN_PERSON_AND_ORGANIZATION_ASSIGNMENT ( #96, #114, ( #123 ) ) ;
#85 = CIRCLE ( 'NONE', #49, 2.954000000000002846 ) ;
#86 = DIRECTION ( 'NONE',  ( 0.0000000000000000000, 1.000000000000000000, 0.0000000000000000000 ) ) ;
#87 = CARTESIAN_POINT ( 'NONE',  ( 7.955811952948891279E-14, -2.790523189800400491E-15, 22.78635106663628562 ) ) ;
#88 = ADVANCED_FACE ( 'NONE', ( #65 ), #169, .F. ) ;
#89 = CARTESIAN_POINT ( 'NONE',  ( 7.681258945454893382E-14, -2.694222958124176809E-15, 22.00000000000000000 ) ) ;
#90 = DIRECTION ( 'NONE',  ( -4.275831445896958607E-31, -1.000000000000000000, -1.224646799147353207E-16 ) ) ;
#91 = DIRECTION ( 'NONE',  ( 0.0000000000000000000, 1.000000000000000000, 0.0000000000000000000 ) ) ;
#92 = PRODUCT_RELATED_PRODUCT_CATEGORY ( 'detail', '', ( #123 ) ) ;
#93 = AXIS2_PLACEMENT_3D ( 'NONE', #128, #67, #239 ) ;
#94 = COORDINATED_UNIVERSAL_TIME_OFFSET ( 1, 0, .AHEAD. ) ;
#95 = CALENDAR_DATE ( 2021, 30, 11 ) ;
#96 = PERSON_AND_ORGANIZATION ( #18, #72 ) ;
#97 = DATE_AND_TIME ( #95, #153 ) ;
#98 = AXIS2_PLACEMENT_3D ( 'NONE', #143, #109, #240 ) ;
#99 = PERSON_AND_ORGANIZATION ( #18, #72 ) ;
#100 = SECURITY_CLASSIFICATION_LEVEL ( 'unclassified' ) ;
#101 = CC_DESIGN_DATE_AND_TIME_ASSIGNMENT ( #139, #9, ( #218 ) ) ;
#102 = CIRCLE ( 'NONE', #98, 2.654000000000000359 ) ;
#103 = CC_DESIGN_DATE_AND_TIME_ASSIGNMENT ( #56, #133, ( #232 ) ) ;
#104 = PRODUCT_DEFINITION_FORMATION_WITH_SPECIFIED_SOURCE ( 'ANY', '', #123, .NOT_KNOWN. ) ;
#105 = EDGE_LOOP ( 'NONE', ( #201 ) ) ;
#106 = AXIS2_PLACEMENT_3D ( 'NONE', #190, #214, #193 ) ;
#107 = DIRECTION ( 'NONE',  ( 4.275831445896959482E-31, 1.000000000000000000, 1.224646799147353454E-16 ) ) ;
#108 = DIRECTION ( 'NONE',  ( 3.491481338843133355E-15, -1.224646799147353207E-16, 1.000000000000000000 ) ) ;
#109 = DIRECTION ( 'NONE',  ( -3.491481338843133355E-15, 1.224646799147353207E-16, -1.000000000000000000 ) ) ;
#110 = FACE_OUTER_BOUND ( 'NONE', #61, .T. ) ;
#111 = EDGE_CURVE ( 'NONE', #19, #19, #102, .T. ) ;
#112 = APPROVAL_ROLE ( '' ) ;
#113 = AXIS2_PLACEMENT_3D ( 'NONE', #42, #145, #167 ) ;
#114 = PERSON_AND_ORGANIZATION_ROLE ( 'design_owner' ) ;
#115 =( NAMED_UNIT ( * ) SI_UNIT ( $, .STERADIAN. ) SOLID_ANGLE_UNIT ( ) );
#116 = APPROVAL_STATUS ( 'not_yet_approved' ) ;
#117 = CIRCLE ( 'NONE', #37, 2.954000000000002846 ) ;
#118 = ORIENTED_EDGE ( 'NONE', *, *, #142, .T. ) ;
#119 = EDGE_LOOP ( 'NONE', ( #138 ) ) ;
#120 = EDGE_LOOP ( 'NONE', ( #43 ) ) ;
#121 = EDGE_CURVE ( 'NONE', #152, #152, #85, .T. ) ;
#122 = PERSON_AND_ORGANIZATION ( #18, #72 ) ;
#123 = PRODUCT ( '969455', '969455', '', ( #2 ) ) ;
#124 = DIRECTION ( 'NONE',  ( 0.0000000000000000000, 1.000000000000000000, 0.0000000000000000000 ) ) ;
#125 = APPLICATION_CONTEXT ( 'configuration controlled 3d designs of mechanical parts and assemblies' ) ;
#126 = AXIS2_PLACEMENT_3D ( 'NONE', #151, #210, #195 ) ;
#127 = PLANE ( 'NONE',  #59 ) ;
#128 = CARTESIAN_POINT ( 'NONE',  ( 2.199633243471174140E-13, -7.715274834628325378E-15, 63.00000000000000000 ) ) ;
#129 = FACE_OUTER_BOUND ( 'NONE', #63, .T. ) ;
#130 = FACE_BOUND ( 'NONE', #119, .T. ) ;
#131 = PERSON_AND_ORGANIZATION ( #18, #72 ) ;
#132 = PERSON_AND_ORGANIZATION ( #18, #72 ) ;
#133 = DATE_TIME_ROLE ( 'creation_date' ) ;
#134 = CC_DESIGN_PERSON_AND_ORGANIZATION_ASSIGNMENT ( #99, #25, ( #104 ) ) ;
#135 = AXIS2_PLACEMENT_3D ( 'NONE', #30, #108, #185 ) ;
#136 = ORIENTED_EDGE ( 'NONE', *, *, #121, .T. ) ;
#137 = PERSON_AND_ORGANIZATION_ROLE ( 'classification_officer' ) ;
#138 = ORIENTED_EDGE ( 'NONE', *, *, #64, .T. ) ;
#139 = DATE_AND_TIME ( #57, #27 ) ;
#140 = EDGE_LOOP ( 'NONE', ( #8 ) ) ;
#141 = PLANE ( 'NONE',  #148 ) ;
#142 = EDGE_CURVE ( 'NONE', #76, #76, #117, .T. ) ;
#143 = CARTESIAN_POINT ( 'NONE',  ( -1.134805665741053079E-30, 3.980362463184571339E-32, -3.250212604937076350E-16 ) ) ;
#144 = DIRECTION ( 'NONE',  ( -3.491481338843133355E-15, 1.224646799147353207E-16, -1.000000000000000000 ) ) ;
#145 = DIRECTION ( 'NONE',  ( -3.491481338843133355E-15, 1.224646799147353207E-16, -1.000000000000000000 ) ) ;
#146 = ADVANCED_FACE ( 'NONE', ( #161 ), #141, .T. ) ;
#147 = CARTESIAN_POINT ( 'NONE',  ( 7.681258945454893382E-14, 2.215145198991562121E-32, 22.00000000000000000 ) ) ;
#148 = AXIS2_PLACEMENT_3D ( 'NONE', #147, #235, #12 ) ;
#149 =( LENGTH_UNIT ( ) NAMED_UNIT ( * ) SI_UNIT ( .MILLI., .METRE. ) );
#150 = APPROVAL_DATE_TIME ( #97, #186 ) ;
#151 = CARTESIAN_POINT ( 'NONE',  ( 0.0000000000000000000, 0.0000000000000000000, 0.0000000000000000000 ) ) ;
#152 = VERTEX_POINT ( 'NONE', #75 ) ;
#153 = LOCAL_TIME ( 15, 58, 59.00000000000000000, #20 ) ;
#154 = EDGE_LOOP ( 'NONE', ( #81 ) ) ;
#155 = DESIGN_CONTEXT ( 'detailed design', #58, 'design' ) ;
#156 = APPROVAL_STATUS ( 'not_yet_approved' ) ;
#157 = ORIENTED_EDGE ( 'NONE', *, *, #121, .F. ) ;
#158 = EDGE_LOOP ( 'NONE', ( #221 ) ) ;
#159 = APPROVAL_DATE_TIME ( #80, #234 ) ;
#160 = PERSON_AND_ORGANIZATION ( #18, #72 ) ;
#161 = FACE_OUTER_BOUND ( 'NONE', #158, .T. ) ;
#162 = DIRECTION ( 'NONE',  ( 4.563815034092980114E-31, 1.000000000000000000, 1.284599730433063296E-16 ) ) ;
#163 = ADVANCED_BREP_SHAPE_REPRESENTATION ( '969455', ( #164, #4, #126 ), #172 ) ;
#164 = MANIFOLD_SOLID_BREP ( 'Corps-Déplacer/Copier1[1]', #242 ) ;
#165 = FACE_BOUND ( 'NONE', #197, .T. ) ;
#166 = CIRCLE ( 'NONE', #53, 2.499999999999994671 ) ;
#167 = DIRECTION ( 'NONE',  ( 0.0000000000000000000, 1.000000000000000000, 0.0000000000000000000 ) ) ;
#168 = CC_DESIGN_PERSON_AND_ORGANIZATION_ASSIGNMENT ( #5, #83, ( #104 ) ) ;
#169 = PLANE ( 'NONE',  #206 ) ;
#170 = VERTEX_POINT ( 'NONE', #39 ) ;
#171 = CIRCLE ( 'NONE', #113, 2.500000000000000000 ) ;
#172 =( GEOMETRIC_REPRESENTATION_CONTEXT ( 3 ) GLOBAL_UNCERTAINTY_ASSIGNED_CONTEXT ( ( #77 ) ) GLOBAL_UNIT_ASSIGNED_CONTEXT ( ( #149, #212, #115 ) ) REPRESENTATION_CONTEXT ( 'NONE', 'WORKASPACE' ) );
#173 = CARTESIAN_POINT ( 'NONE',  ( 2.182175836776958284E-13, 2.499999999999992450, 62.50000000000000000 ) ) ;
#174 = VERTEX_POINT ( 'NONE', #52 ) ;
#175 = CIRCLE ( 'NONE', #196, 2.000000000000000000 ) ;
#176 = PERSON_AND_ORGANIZATION ( #18, #72 ) ;
#177 = COORDINATED_UNIVERSAL_TIME_OFFSET ( 1, 0, .AHEAD. ) ;
#178 = CC_DESIGN_APPROVAL ( #186, ( #232 ) ) ;
#179 = AXIS2_PLACEMENT_3D ( 'NONE', #87, #238, #91 ) ;
#180 = ORIENTED_EDGE ( 'NONE', *, *, #111, .F. ) ;
#181 = EDGE_LOOP ( 'NONE', ( #11 ) ) ;
#182 = CONICAL_SURFACE ( 'NONE', #179, 2.499999999999994671, 0.5235987755982965952 ) ;
#183 = CC_DESIGN_PERSON_AND_ORGANIZATION_ASSIGNMENT ( #176, #51, ( #232 ) ) ;
#184 = DIRECTION ( 'NONE',  ( 0.0000000000000000000, 1.000000000000000000, 0.0000000000000000000 ) ) ;
#185 = DIRECTION ( 'NONE',  ( -4.275831445896958607E-31, -1.000000000000000000, -1.224646799147353207E-16 ) ) ;
#186 = APPROVAL ( #116, 'UNSPECIFIED' ) ;
#187 = CARTESIAN_POINT ( 'NONE',  ( 0.0000000000000000000, 0.0000000000000000000, 0.0000000000000000000 ) ) ;
#188 = DIRECTION ( 'NONE',  ( 0.0000000000000000000, 1.000000000000000000, 0.0000000000000000000 ) ) ;
#189 = FACE_OUTER_BOUND ( 'NONE', #217, .T. ) ;
#190 = CARTESIAN_POINT ( 'NONE',  ( 1.047444401652938823E-15, -3.673940397442055800E-17, 0.2999999999999996558 ) ) ;
#191 = AXIS2_PLACEMENT_3D ( 'NONE', #207, #225, #107 ) ;
#192 = ADVANCED_FACE ( 'NONE', ( #110, #16 ), #182, .T. ) ;
#193 = DIRECTION ( 'NONE',  ( -4.563815034092980114E-31, -1.000000000000000000, -1.284599730433063296E-16 ) ) ;
#194 = CC_DESIGN_APPROVAL ( #199, ( #104 ) ) ;
#195 = DIRECTION ( 'NONE',  ( 1.000000000000000000, 0.0000000000000000000, 0.0000000000000000000 ) ) ;
#196 = AXIS2_PLACEMENT_3D ( 'NONE', #34, #222, #124 ) ;
#197 = EDGE_LOOP ( 'NONE', ( #180 ) ) ;
#198 = APPROVAL_PERSON_ORGANIZATION ( #131, #199, #112 ) ;
#199 = APPROVAL ( #208, 'UNSPECIFIED' ) ;
#200 = APPROVAL_DATE_TIME ( #21, #199 ) ;
#201 = ORIENTED_EDGE ( 'NONE', *, *, #22, .T. ) ;
#202 = DIRECTION ( 'NONE',  ( -3.491481338843133355E-15, 1.224646799147353207E-16, -1.000000000000000000 ) ) ;
#203 = PLANE ( 'NONE',  #135 ) ;
#204 = CYLINDRICAL_SURFACE ( 'NONE', #45, 2.954000000000000181 ) ;
#205 = DIRECTION ( 'NONE',  ( -3.491481338843133355E-15, 1.224646799147353207E-16, -1.000000000000000000 ) ) ;
#206 = AXIS2_PLACEMENT_3D ( 'NONE', #48, #223, #226 ) ;
#207 = CARTESIAN_POINT ( 'NONE',  ( 0.0000000000000000000, 0.0000000000000000000, 0.0000000000000000000 ) ) ;
#208 = APPROVAL_STATUS ( 'not_yet_approved' ) ;
#209 = CC_DESIGN_SECURITY_CLASSIFICATION ( #218, ( #104 ) ) ;
#210 = DIRECTION ( 'NONE',  ( 0.0000000000000000000, 0.0000000000000000000, 1.000000000000000000 ) ) ;
#211 = CONICAL_SURFACE ( 'NONE', #93, 2.000000000000000000, 0.7853981633974479459 ) ;
#212 =( NAMED_UNIT ( * ) PLANE_ANGLE_UNIT ( ) SI_UNIT ( $, .RADIAN. ) );
#213 = EDGE_CURVE ( 'NONE', #174, #174, #237, .T. ) ;
#214 = DIRECTION ( 'NONE',  ( 3.491481338843133355E-15, -1.224646799147353207E-16, 1.000000000000000000 ) ) ;
#215 = APPROVAL_PERSON_ORGANIZATION ( #132, #186, #17 ) ;
#216 = EDGE_LOOP ( 'NONE', ( #79 ) ) ;
#217 = EDGE_LOOP ( 'NONE', ( #41 ) ) ;
#218 = SECURITY_CLASSIFICATION ( '', '', #100 ) ;
#219 = ORIENTED_EDGE ( 'NONE', *, *, #111, .T. ) ;
#220 = COORDINATED_UNIVERSAL_TIME_OFFSET ( 1, 0, .AHEAD. ) ;
#221 = ORIENTED_EDGE ( 'NONE', *, *, #142, .F. ) ;
#222 = DIRECTION ( 'NONE',  ( -3.491481338843133355E-15, 1.224646799147353207E-16, -1.000000000000000000 ) ) ;
#223 = DIRECTION ( 'NONE',  ( -3.491481338843133355E-15, 1.224646799147353207E-16, -1.000000000000000000 ) ) ;
#224 = FACE_OUTER_BOUND ( 'NONE', #216, .T. ) ;
#225 = DIRECTION ( 'NONE',  ( -3.491481338843133355E-15, 1.224646799147353207E-16, -1.000000000000000000 ) ) ;
#226 = DIRECTION ( 'NONE',  ( 4.275831445896958607E-31, 1.000000000000000000, 1.224646799147353207E-16 ) ) ;
#227 = ADVANCED_FACE ( 'NONE', ( #236 ), #203, .F. ) ;
#228 = FACE_OUTER_BOUND ( 'NONE', #140, .T. ) ;
#229 = VERTEX_POINT ( 'NONE', #241 ) ;
#230 = ADVANCED_FACE ( 'NONE', ( #165, #228 ), #60, .T. ) ;
#231 = APPLICATION_PROTOCOL_DEFINITION ( 'international standard', 'config_control_design', 1994, #125 ) ;
#232 = PRODUCT_DEFINITION ( 'UNKNOWN', '', #104, #155 ) ;
#233 = SHAPE_DEFINITION_REPRESENTATION ( #78, #163 ) ;
#234 = APPROVAL ( #156, 'UNSPECIFIED' ) ;
#235 = DIRECTION ( 'NONE',  ( 3.491481338843133355E-15, -1.224646799147353207E-16, 1.000000000000000000 ) ) ;
#236 = FACE_OUTER_BOUND ( 'NONE', #24, .T. ) ;
#237 = CIRCLE ( 'NONE', #40, 2.953999999999997517 ) ;
#238 = DIRECTION ( 'NONE',  ( -3.491481338843133355E-15, 1.224646799147353207E-16, -1.000000000000000000 ) ) ;
#239 = DIRECTION ( 'NONE',  ( 0.0000000000000000000, 1.000000000000000000, 0.0000000000000000000 ) ) ;
#240 = DIRECTION ( 'NONE',  ( 4.275831445896958607E-31, 1.000000000000000000, 1.224646799147353454E-16 ) ) ;
#241 = CARTESIAN_POINT ( 'NONE',  ( 2.199633243471174140E-13, 1.999999999999992228, 63.00000000000000000 ) ) ;
#242 = CLOSED_SHELL ( 'NONE', ( #227, #192, #33, #38, #88 ) ) ;
#243 = VERTEX_POINT ( 'NONE', #173 ) ;
ENDSEC;
END-ISO-10303-21;
