ISO-10303-21;
HEADER;
FILE_DESCRIPTION (( 'STEP AP203' ),
    '1' );
FILE_NAME ('969454.step',
    '2021-11-30T14:58:59',
    ( '' ),
    ( '' ),
    'SwSTEP 2.0',
    'SolidWorks 2019',
    '' );
FILE_SCHEMA (( 'CONFIG_CONTROL_DESIGN' ));
ENDSEC;

DATA;
#1 = DIRECTION ( 'NONE',  ( -3.979194099973631176E-31, -1.000000000000000000, -1.306717494386800737E-16 ) ) ;
#2 = EDGE_LOOP ( 'NONE', ( #240 ) ) ;
#3 = DIRECTION ( 'NONE',  ( -3.491481338843133355E-15, 1.224646799147353207E-16, -1.000000000000000000 ) ) ;
#4 = SECURITY_CLASSIFICATION ( '', '', #128 ) ;
#5 = DIRECTION ( 'NONE',  ( -3.491481338843133355E-15, 1.224646799147353207E-16, -1.000000000000000000 ) ) ;
#6 = EDGE_CURVE ( 'NONE', #86, #86, #23, .T. ) ;
#7 = PLANE ( 'NONE',  #70 ) ;
#8 = APPROVAL_STATUS ( 'not_yet_approved' ) ;
#9 = AXIS2_PLACEMENT_3D ( 'NONE', #173, #90, #50 ) ;
#10 = CARTESIAN_POINT ( 'NONE',  ( 2.199633243471174140E-13, 1.999999999999992228, 63.00000000000000000 ) ) ;
#11 = CARTESIAN_POINT ( 'NONE',  ( 7.681258945454893382E-14, 2.903999999999998582, 22.00000000000000000 ) ) ;
#12 = DIRECTION ( 'NONE',  ( 1.000000000000000000, 0.0000000000000000000, 0.0000000000000000000 ) ) ;
#13 = EDGE_CURVE ( 'NONE', #180, #180, #64, .T. ) ;
#14 = DESIGN_CONTEXT ( 'detailed design', #196, 'design' ) ;
#15 = CIRCLE ( 'NONE', #24, 2.904000000000001247 ) ;
#16 = APPLICATION_CONTEXT ( 'configuration controlled 3d designs of mechanical parts and assemblies' ) ;
#17 = CC_DESIGN_APPROVAL ( #109, ( #4 ) ) ;
#18 = EDGE_LOOP ( 'NONE', ( #76 ) ) ;
#19 = DIRECTION ( 'NONE',  ( 4.275831445896958607E-31, 1.000000000000000000, 1.224646799147353207E-16 ) ) ;
#20 = EDGE_LOOP ( 'NONE', ( #148 ) ) ;
#21 = APPROVAL ( #8, 'UNSPECIFIED' ) ;
#22 = DIRECTION ( 'NONE',  ( 0.0000000000000000000, 1.000000000000000000, 0.0000000000000000000 ) ) ;
#23 = CIRCLE ( 'NONE', #206, 2.904000000000001247 ) ;
#24 = AXIS2_PLACEMENT_3D ( 'NONE', #38, #118, #22 ) ;
#25 = CARTESIAN_POINT ( 'NONE',  ( 7.925574837586117498E-14, -2.779917437413151232E-15, 22.69974852625784223 ) ) ;
#26 = VERTEX_POINT ( 'NONE', #123 ) ;
#27 = APPROVAL_ROLE ( '' ) ;
#28 = LOCAL_TIME ( 15, 58, 59.00000000000000000, #85 ) ;
#29 = APPLICATION_PROTOCOL_DEFINITION ( 'international standard', 'config_control_design', 1994, #196 ) ;
#30 = DIRECTION ( 'NONE',  ( -4.275831445896958607E-31, -1.000000000000000000, -1.224646799147353207E-16 ) ) ;
#31 = CC_DESIGN_PERSON_AND_ORGANIZATION_ASSIGNMENT ( #179, #84, ( #129 ) ) ;
#32 = CONICAL_SURFACE ( 'NONE', #127, 2.903999999999997250, 0.7853981633974437271 ) ;
#33 = ORIENTED_EDGE ( 'NONE', *, *, #136, .F. ) ;
#34 = CC_DESIGN_SECURITY_CLASSIFICATION ( #4, ( #106 ) ) ;
#35 = FACE_OUTER_BOUND ( 'NONE', #93, .T. ) ;
#36 = DIRECTION ( 'NONE',  ( 0.0000000000000000000, 1.000000000000000000, 0.0000000000000000000 ) ) ;
#37 = EDGE_LOOP ( 'NONE', ( #49 ) ) ;
#38 = CARTESIAN_POINT ( 'NONE',  ( 7.681258945454893382E-14, -2.694222958124176809E-15, 22.00000000000000000 ) ) ;
#39 = CARTESIAN_POINT ( 'NONE',  ( 7.681258945454893382E-14, -2.694222958124176809E-15, 22.00000000000000000 ) ) ;
#40 = CARTESIAN_POINT ( 'NONE',  ( 7.925574837586117498E-14, -2.779917437413151232E-15, 22.69974852625784223 ) ) ;
#41 = COORDINATED_UNIVERSAL_TIME_OFFSET ( 1, 0, .AHEAD. ) ;
#42 = DATE_AND_TIME ( #213, #215 ) ;
#43 = AXIS2_PLACEMENT_3D ( 'NONE', #67, #58, #12 ) ;
#44 = PERSON_AND_ORGANIZATION ( #169, #165 ) ;
#45 = APPROVAL_DATE_TIME ( #237, #109 ) ;
#46 = LOCAL_TIME ( 15, 58, 59.00000000000000000, #184 ) ;
#47 = ADVANCED_FACE ( 'NONE', ( #221, #35 ), #54, .T. ) ;
#48 = CARTESIAN_POINT ( 'NONE',  ( 1.047444401652938626E-15, -3.673940397442054568E-17, 0.2999999999999996003 ) ) ;
#49 = ORIENTED_EDGE ( 'NONE', *, *, #13, .F. ) ;
#50 = DIRECTION ( 'NONE',  ( 0.0000000000000000000, 1.000000000000000000, 0.0000000000000000000 ) ) ;
#51 = LOCAL_TIME ( 15, 58, 59.00000000000000000, #199 ) ;
#52 = FACE_OUTER_BOUND ( 'NONE', #18, .T. ) ;
#53 = EDGE_LOOP ( 'NONE', ( #189 ) ) ;
#54 = CYLINDRICAL_SURFACE ( 'NONE', #176, 2.499999999999997335 ) ;
#55 = DIRECTION ( 'NONE',  ( -3.491481338843133355E-15, 1.224646799147353207E-16, -1.000000000000000000 ) ) ;
#56 = FACE_OUTER_BOUND ( 'NONE', #208, .T. ) ;
#57 = CLOSED_SHELL ( 'NONE', ( #223, #166, #47, #139, #104 ) ) ;
#58 = DIRECTION ( 'NONE',  ( 0.0000000000000000000, 0.0000000000000000000, 1.000000000000000000 ) ) ;
#59 = AXIS2_PLACEMENT_3D ( 'NONE', #190, #155, #19 ) ;
#60 = CC_DESIGN_PERSON_AND_ORGANIZATION_ASSIGNMENT ( #87, #105, ( #4 ) ) ;
#61 = APPROVAL_DATE_TIME ( #233, #21 ) ;
#62 = VERTEX_POINT ( 'NONE', #164 ) ;
#63 =( NAMED_UNIT ( * ) PLANE_ANGLE_UNIT ( ) SI_UNIT ( $, .RADIAN. ) );
#64 = CIRCLE ( 'NONE', #231, 2.000000000000000000 ) ;
#65 = CC_DESIGN_APPROVAL ( #241, ( #106 ) ) ;
#66 = PRODUCT_DEFINITION ( 'UNKNOWN', '', #106, #14 ) ;
#67 = CARTESIAN_POINT ( 'NONE',  ( 0.0000000000000000000, 0.0000000000000000000, 0.0000000000000000000 ) ) ;
#68 = CALENDAR_DATE ( 2021, 30, 11 ) ;
#69 = DATE_AND_TIME ( #143, #51 ) ;
#70 = AXIS2_PLACEMENT_3D ( 'NONE', #97, #134, #137 ) ;
#71 = EDGE_CURVE ( 'NONE', #103, #103, #99, .T. ) ;
#72 = AXIS2_PLACEMENT_3D ( 'NONE', #48, #191, #130 ) ;
#73 = ORIENTED_EDGE ( 'NONE', *, *, #6, .T. ) ;
#74 = FACE_BOUND ( 'NONE', #80, .T. ) ;
#75 = FACE_BOUND ( 'NONE', #20, .T. ) ;
#76 = ORIENTED_EDGE ( 'NONE', *, *, #219, .T. ) ;
#77 = AXIS2_PLACEMENT_3D ( 'NONE', #224, #174, #82 ) ;
#78 = APPROVAL_PERSON_ORGANIZATION ( #44, #21, #160 ) ;
#79 = FACE_OUTER_BOUND ( 'NONE', #243, .T. ) ;
#80 = EDGE_LOOP ( 'NONE', ( #202 ) ) ;
#81 = PLANE ( 'NONE',  #95 ) ;
#82 = DIRECTION ( 'NONE',  ( 4.275831445896958607E-31, 1.000000000000000000, 1.224646799147353207E-16 ) ) ;
#83 = CARTESIAN_POINT ( 'NONE',  ( 1.047444401652939612E-15, 2.903999999999997250, 0.2999999999999999889 ) ) ;
#84 = PERSON_AND_ORGANIZATION_ROLE ( 'design_owner' ) ;
#85 = COORDINATED_UNIVERSAL_TIME_OFFSET ( 1, 0, .AHEAD. ) ;
#86 = VERTEX_POINT ( 'NONE', #217 ) ;
#87 = PERSON_AND_ORGANIZATION ( #169, #165 ) ;
#88 = SHAPE_DEFINITION_REPRESENTATION ( #204, #185 ) ;
#89 = CC_DESIGN_APPROVAL ( #21, ( #66 ) ) ;
#90 = DIRECTION ( 'NONE',  ( -3.491481338843133355E-15, 1.224646799147353207E-16, -1.000000000000000000 ) ) ;
#91 = EDGE_LOOP ( 'NONE', ( #222 ) ) ;
#92 = DIRECTION ( 'NONE',  ( -3.491481338843133355E-15, 1.224646799147353207E-16, -1.000000000000000000 ) ) ;
#93 = EDGE_LOOP ( 'NONE', ( #220 ) ) ;
#94 = DIRECTION ( 'NONE',  ( -3.491481338843133355E-15, 1.224646799147353207E-16, -1.000000000000000000 ) ) ;
#95 = AXIS2_PLACEMENT_3D ( 'NONE', #157, #229, #30 ) ;
#96 = DIRECTION ( 'NONE',  ( 0.0000000000000000000, 1.000000000000000000, 0.0000000000000000000 ) ) ;
#97 = CARTESIAN_POINT ( 'NONE',  ( -1.781660889791518675E-31, 6.249225168627595013E-33, -5.102879600043497938E-17 ) ) ;
#98 = CC_DESIGN_PERSON_AND_ORGANIZATION_ASSIGNMENT ( #167, #181, ( #106 ) ) ;
#99 = CIRCLE ( 'NONE', #124, 2.604000000000000536 ) ;
#100 = COORDINATED_UNIVERSAL_TIME_OFFSET ( 1, 0, .AHEAD. ) ;
#101 = APPROVAL_STATUS ( 'not_yet_approved' ) ;
#102 = DATE_TIME_ROLE ( 'creation_date' ) ;
#103 = VERTEX_POINT ( 'NONE', #120 ) ;
#104 = ADVANCED_FACE ( 'NONE', ( #178 ), #111, .F. ) ;
#105 = PERSON_AND_ORGANIZATION_ROLE ( 'classification_officer' ) ;
#106 = PRODUCT_DEFINITION_FORMATION_WITH_SPECIFIED_SOURCE ( 'ANY', '', #129, .NOT_KNOWN. ) ;
#107 = ORIENTED_EDGE ( 'NONE', *, *, #117, .F. ) ;
#108 = FACE_OUTER_BOUND ( 'NONE', #112, .T. ) ;
#109 = APPROVAL ( #238, 'UNSPECIFIED' ) ;
#110 = CONICAL_SURFACE ( 'NONE', #121, 2.499999999999994671, 0.5235987755982954850 ) ;
#111 = PLANE ( 'NONE',  #77 ) ;
#112 = EDGE_LOOP ( 'NONE', ( #73 ) ) ;
#113 = CYLINDRICAL_SURFACE ( 'NONE', #59, 2.903999999999999471 ) ;
#114 = EDGE_LOOP ( 'NONE', ( #226 ) ) ;
#115 = FACE_OUTER_BOUND ( 'NONE', #91, .T. ) ;
#116 = DIRECTION ( 'NONE',  ( -3.491481338843133355E-15, 1.224646799147353207E-16, -1.000000000000000000 ) ) ;
#117 = EDGE_CURVE ( 'NONE', #26, #26, #182, .T. ) ;
#118 = DIRECTION ( 'NONE',  ( -3.491481338843133355E-15, 1.224646799147353207E-16, -1.000000000000000000 ) ) ;
#119 = VERTEX_POINT ( 'NONE', #11 ) ;
#120 = CARTESIAN_POINT ( 'NONE',  ( 7.570943305532645426E-31, 2.604000000000000536, 2.168404344971008868E-16 ) ) ;
#121 = AXIS2_PLACEMENT_3D ( 'NONE', #40, #5, #175 ) ;
#122 = PERSON_AND_ORGANIZATION ( #169, #165 ) ;
#123 = CARTESIAN_POINT ( 'NONE',  ( 2.182175836776958284E-13, 2.499999999999992450, 62.50000000000000000 ) ) ;
#124 = AXIS2_PLACEMENT_3D ( 'NONE', #186, #3, #151 ) ;
#125 = PRODUCT_RELATED_PRODUCT_CATEGORY ( 'detail', '', ( #129 ) ) ;
#126 = APPROVAL_PERSON_ORGANIZATION ( #194, #241, #27 ) ;
#127 = AXIS2_PLACEMENT_3D ( 'NONE', #242, #205, #1 ) ;
#128 = SECURITY_CLASSIFICATION_LEVEL ( 'unclassified' ) ;
#129 = PRODUCT ( '969454', '969454', '', ( #216 ) ) ;
#130 = DIRECTION ( 'NONE',  ( 3.979194099973631176E-31, 1.000000000000000000, 1.306717494386800737E-16 ) ) ;
#131 = FACE_OUTER_BOUND ( 'NONE', #53, .T. ) ;
#132 = CARTESIAN_POINT ( 'NONE',  ( 7.681258945454893382E-14, 2.177651204425014313E-32, 22.00000000000000000 ) ) ;
#133 = ORIENTED_EDGE ( 'NONE', *, *, #6, .F. ) ;
#134 = DIRECTION ( 'NONE',  ( 3.491481338843133355E-15, -1.224646799147353207E-16, 1.000000000000000000 ) ) ;
#135 = DIRECTION ( 'NONE',  ( 0.0000000000000000000, 1.000000000000000000, 0.0000000000000000000 ) ) ;
#136 = EDGE_CURVE ( 'NONE', #62, #62, #144, .T. ) ;
#137 = DIRECTION ( 'NONE',  ( -4.275831445896958607E-31, -1.000000000000000000, -1.224646799147353207E-16 ) ) ;
#138 = PERSON_AND_ORGANIZATION ( #169, #165 ) ;
#139 = ADVANCED_FACE ( 'NONE', ( #56, #74 ), #214, .T. ) ;
#140 = DATE_AND_TIME ( #162, #232 ) ;
#141 = APPLICATION_PROTOCOL_DEFINITION ( 'international standard', 'config_control_design', 1994, #16 ) ;
#142 = ADVANCED_FACE ( 'NONE', ( #131 ), #7, .F. ) ;
#143 = CALENDAR_DATE ( 2021, 30, 11 ) ;
#144 = CIRCLE ( 'NONE', #218, 2.499999999999994671 ) ;
#145 = APPROVAL_PERSON_ORGANIZATION ( #147, #109, #239 ) ;
#146 = CC_DESIGN_PERSON_AND_ORGANIZATION_ASSIGNMENT ( #122, #195, ( #106 ) ) ;
#147 = PERSON_AND_ORGANIZATION ( #169, #165 ) ;
#148 = ORIENTED_EDGE ( 'NONE', *, *, #136, .T. ) ;
#149 = ORIENTED_EDGE ( 'NONE', *, *, #159, .F. ) ;
#150 = CC_DESIGN_DATE_AND_TIME_ASSIGNMENT ( #69, #168, ( #4 ) ) ;
#151 = DIRECTION ( 'NONE',  ( 4.275831445896958607E-31, 1.000000000000000000, 1.224646799147353207E-16 ) ) ;
#152 = MANIFOLD_SOLID_BREP ( 'Corps-Déplacer/Copier1[1]', #57 ) ;
#153 = CARTESIAN_POINT ( 'NONE',  ( 2.182175836776958284E-13, -7.654042494670957804E-15, 62.50000000000000000 ) ) ;
#154 = EDGE_LOOP ( 'NONE', ( #33 ) ) ;
#155 = DIRECTION ( 'NONE',  ( -3.491481338843133355E-15, 1.224646799147353207E-16, -1.000000000000000000 ) ) ;
#156 = ADVANCED_FACE ( 'NONE', ( #211, #192 ), #32, .T. ) ;
#157 = CARTESIAN_POINT ( 'NONE',  ( 7.681258945454893382E-14, 2.177651204425014313E-32, 22.00000000000000000 ) ) ;
#158 =( NAMED_UNIT ( * ) SI_UNIT ( $, .STERADIAN. ) SOLID_ANGLE_UNIT ( ) );
#159 = EDGE_CURVE ( 'NONE', #197, #197, #163, .T. ) ;
#160 = APPROVAL_ROLE ( '' ) ;
#161 = PERSON_AND_ORGANIZATION_ROLE ( 'creator' ) ;
#162 = CALENDAR_DATE ( 2021, 30, 11 ) ;
#163 = CIRCLE ( 'NONE', #72, 2.903999999999997250 ) ;
#164 = CARTESIAN_POINT ( 'NONE',  ( 7.925574837586117498E-14, 2.499999999999992450, 22.69974852625784223 ) ) ;
#165 = ORGANIZATION ( 'UNSPECIFIED', 'UNSPECIFIED', '' ) ;
#166 = ADVANCED_FACE ( 'NONE', ( #203, #75 ), #110, .T. ) ;
#167 = PERSON_AND_ORGANIZATION ( #169, #165 ) ;
#168 = DATE_TIME_ROLE ( 'classification_date' ) ;
#169 = PERSON ( 'UNSPECIFIED', 'UNSPECIFIED', 'UNSPECIFIED', ('UNSPECIFIED'), ('UNSPECIFIED'), ('UNSPECIFIED') ) ;
#170 = ADVANCED_FACE ( 'NONE', ( #115 ), #225, .T. ) ;
#171 =( GEOMETRIC_REPRESENTATION_CONTEXT ( 3 ) GLOBAL_UNCERTAINTY_ASSIGNED_CONTEXT ( ( #200 ) ) GLOBAL_UNIT_ASSIGNED_CONTEXT ( ( #212, #63, #158 ) ) REPRESENTATION_CONTEXT ( 'NONE', 'WORKASPACE' ) );
#172 = CC_DESIGN_DATE_AND_TIME_ASSIGNMENT ( #140, #102, ( #66 ) ) ;
#173 = CARTESIAN_POINT ( 'NONE',  ( 2.199633243471174140E-13, -7.715274834628325378E-15, 63.00000000000000000 ) ) ;
#174 = DIRECTION ( 'NONE',  ( -3.491481338843133355E-15, 1.224646799147353207E-16, -1.000000000000000000 ) ) ;
#175 = DIRECTION ( 'NONE',  ( 0.0000000000000000000, 1.000000000000000000, 0.0000000000000000000 ) ) ;
#176 = AXIS2_PLACEMENT_3D ( 'NONE', #188, #207, #177 ) ;
#177 = DIRECTION ( 'NONE',  ( 4.275831445896959482E-31, 1.000000000000000000, 1.224646799147353454E-16 ) ) ;
#178 = FACE_OUTER_BOUND ( 'NONE', #37, .T. ) ;
#179 = PERSON_AND_ORGANIZATION ( #169, #165 ) ;
#180 = VERTEX_POINT ( 'NONE', #10 ) ;
#181 = PERSON_AND_ORGANIZATION_ROLE ( 'design_supplier' ) ;
#182 = CIRCLE ( 'NONE', #201, 2.500000000000000000 ) ;
#183 = AXIS2_PLACEMENT_3D ( 'NONE', #132, #227, #209 ) ;
#184 = COORDINATED_UNIVERSAL_TIME_OFFSET ( 1, 0, .AHEAD. ) ;
#185 = ADVANCED_BREP_SHAPE_REPRESENTATION ( '969454', ( #152, #236, #43 ), #171 ) ;
#186 = CARTESIAN_POINT ( 'NONE',  ( -3.563321779583037350E-31, 1.249845033725519003E-32, -1.020575920008699588E-16 ) ) ;
#187 = EDGE_LOOP ( 'NONE', ( #133 ) ) ;
#188 = CARTESIAN_POINT ( 'NONE',  ( 0.0000000000000000000, 0.0000000000000000000, 0.0000000000000000000 ) ) ;
#189 = ORIENTED_EDGE ( 'NONE', *, *, #71, .T. ) ;
#190 = CARTESIAN_POINT ( 'NONE',  ( 0.0000000000000000000, 0.0000000000000000000, 0.0000000000000000000 ) ) ;
#191 = DIRECTION ( 'NONE',  ( -3.491481338843133355E-15, 1.224646799147353207E-16, -1.000000000000000000 ) ) ;
#192 = FACE_OUTER_BOUND ( 'NONE', #2, .T. ) ;
#193 = ADVANCED_FACE ( 'NONE', ( #79, #52 ), #113, .T. ) ;
#194 = PERSON_AND_ORGANIZATION ( #169, #165 ) ;
#195 = PERSON_AND_ORGANIZATION_ROLE ( 'creator' ) ;
#196 = APPLICATION_CONTEXT ( 'configuration controlled 3d designs of mechanical parts and assemblies' ) ;
#197 = VERTEX_POINT ( 'NONE', #83 ) ;
#198 = CLOSED_SHELL ( 'NONE', ( #142, #156, #193, #170 ) ) ;
#199 = COORDINATED_UNIVERSAL_TIME_OFFSET ( 1, 0, .AHEAD. ) ;
#200 = UNCERTAINTY_MEASURE_WITH_UNIT (LENGTH_MEASURE( 1.000000000000000082E-05 ), #212, 'distance_accuracy_value', 'NONE');
#201 = AXIS2_PLACEMENT_3D ( 'NONE', #153, #94, #96 ) ;
#202 = ORIENTED_EDGE ( 'NONE', *, *, #13, .T. ) ;
#203 = FACE_OUTER_BOUND ( 'NONE', #187, .T. ) ;
#204 = PRODUCT_DEFINITION_SHAPE ( 'NONE', 'NONE',  #66 ) ;
#205 = DIRECTION ( 'NONE',  ( 3.491481338843133355E-15, -1.224646799147353207E-16, 1.000000000000000000 ) ) ;
#206 = AXIS2_PLACEMENT_3D ( 'NONE', #39, #55, #135 ) ;
#207 = DIRECTION ( 'NONE',  ( -3.491481338843133355E-15, 1.224646799147353207E-16, -1.000000000000000000 ) ) ;
#208 = EDGE_LOOP ( 'NONE', ( #107 ) ) ;
#209 = DIRECTION ( 'NONE',  ( -4.275831445896958607E-31, -1.000000000000000000, -1.224646799147353207E-16 ) ) ;
#210 = DIRECTION ( 'NONE',  ( 0.0000000000000000000, 1.000000000000000000, 0.0000000000000000000 ) ) ;
#211 = FACE_BOUND ( 'NONE', #114, .T. ) ;
#212 =( LENGTH_UNIT ( ) NAMED_UNIT ( * ) SI_UNIT ( .MILLI., .METRE. ) );
#213 = CALENDAR_DATE ( 2021, 30, 11 ) ;
#214 = CONICAL_SURFACE ( 'NONE', #9, 2.000000000000000000, 0.7853981633974479459 ) ;
#215 = LOCAL_TIME ( 15, 58, 59.00000000000000000, #100 ) ;
#216 = MECHANICAL_CONTEXT ( 'NONE', #16, 'mechanical' ) ;
#217 = CARTESIAN_POINT ( 'NONE',  ( 7.681258945454893382E-14, 2.903999999999998582, 22.00000000000000000 ) ) ;
#218 = AXIS2_PLACEMENT_3D ( 'NONE', #25, #92, #36 ) ;
#219 = EDGE_CURVE ( 'NONE', #119, #119, #15, .T. ) ;
#220 = ORIENTED_EDGE ( 'NONE', *, *, #117, .T. ) ;
#221 = FACE_OUTER_BOUND ( 'NONE', #154, .T. ) ;
#222 = ORIENTED_EDGE ( 'NONE', *, *, #219, .F. ) ;
#223 = ADVANCED_FACE ( 'NONE', ( #108 ), #81, .F. ) ;
#224 = CARTESIAN_POINT ( 'NONE',  ( 2.199633243471174140E-13, 1.499759782661846113E-32, 63.00000000000000000 ) ) ;
#225 = PLANE ( 'NONE',  #183 ) ;
#226 = ORIENTED_EDGE ( 'NONE', *, *, #71, .F. ) ;
#227 = DIRECTION ( 'NONE',  ( 3.491481338843133355E-15, -1.224646799147353207E-16, 1.000000000000000000 ) ) ;
#228 = CARTESIAN_POINT ( 'NONE',  ( 2.199633243471174140E-13, -7.715274834628325378E-15, 63.00000000000000000 ) ) ;
#229 = DIRECTION ( 'NONE',  ( 3.491481338843133355E-15, -1.224646799147353207E-16, 1.000000000000000000 ) ) ;
#230 = CC_DESIGN_PERSON_AND_ORGANIZATION_ASSIGNMENT ( #138, #161, ( #66 ) ) ;
#231 = AXIS2_PLACEMENT_3D ( 'NONE', #228, #116, #210 ) ;
#232 = LOCAL_TIME ( 15, 58, 59.00000000000000000, #41 ) ;
#233 = DATE_AND_TIME ( #234, #28 ) ;
#234 = CALENDAR_DATE ( 2021, 30, 11 ) ;
#235 = APPROVAL_DATE_TIME ( #42, #241 ) ;
#236 = MANIFOLD_SOLID_BREP ( 'Corps-Déplacer/Copier1[2]', #198 ) ;
#237 = DATE_AND_TIME ( #68, #46 ) ;
#238 = APPROVAL_STATUS ( 'not_yet_approved' ) ;
#239 = APPROVAL_ROLE ( '' ) ;
#240 = ORIENTED_EDGE ( 'NONE', *, *, #159, .T. ) ;
#241 = APPROVAL ( #101, 'UNSPECIFIED' ) ;
#242 = CARTESIAN_POINT ( 'NONE',  ( 1.047444401652938626E-15, -3.673940397442054568E-17, 0.2999999999999996003 ) ) ;
#243 = EDGE_LOOP ( 'NONE', ( #149 ) ) ;
ENDSEC;
END-ISO-10303-21;
