ISO-10303-21;
HEADER;
FILE_DESCRIPTION (( 'STEP AP203' ),
    '1' );
FILE_NAME ('969453.step',
    '2021-11-30T14:54:54',
    ( '' ),
    ( '' ),
    'SwSTEP 2.0',
    'SolidWorks 2019',
    '' );
FILE_SCHEMA (( 'CONFIG_CONTROL_DESIGN' ));
ENDSEC;

DATA;
#1 = CIRCLE ( 'NONE', #118, 2.853999999999999648 ) ;
#2 = CC_DESIGN_SECURITY_CLASSIFICATION ( #150, ( #208 ) ) ;
#3 = CARTESIAN_POINT ( 'NONE',  ( 7.681258945454893382E-14, 2.140157209858466778E-32, 22.00000000000000000 ) ) ;
#4 = ADVANCED_FACE ( 'NONE', ( #83 ), #61, .F. ) ;
#5 = CARTESIAN_POINT ( 'NONE',  ( 2.199633243471174140E-13, 1.499759782661846113E-32, 63.00000000000000000 ) ) ;
#6 = VERTEX_POINT ( 'NONE', #180 ) ;
#7 = CARTESIAN_POINT ( 'NONE',  ( 0.0000000000000000000, 0.0000000000000000000, 0.0000000000000000000 ) ) ;
#8 = COORDINATED_UNIVERSAL_TIME_OFFSET ( 1, 0, .AHEAD. ) ;
#9 = AXIS2_PLACEMENT_3D ( 'NONE', #38, #151, #228 ) ;
#10 = EDGE_CURVE ( 'NONE', #141, #141, #187, .T. ) ;
#11 = FACE_BOUND ( 'NONE', #53, .T. ) ;
#12 = LOCAL_TIME ( 15, 54, 54.00000000000000000, #101 ) ;
#13 = PERSON_AND_ORGANIZATION ( #60, #169 ) ;
#14 = ORIENTED_EDGE ( 'NONE', *, *, #10, .F. ) ;
#15 = AXIS2_PLACEMENT_3D ( 'NONE', #193, #59, #45 ) ;
#16 = APPLICATION_CONTEXT ( 'configuration controlled 3d designs of mechanical parts and assemblies' ) ;
#17 = EDGE_LOOP ( 'NONE', ( #209 ) ) ;
#18 = AXIS2_PLACEMENT_3D ( 'NONE', #90, #202, #65 ) ;
#19 = FACE_OUTER_BOUND ( 'NONE', #149, .T. ) ;
#20 = CARTESIAN_POINT ( 'NONE',  ( 7.681258945454893382E-14, 2.140157209858466778E-32, 22.00000000000000000 ) ) ;
#21 = DATE_AND_TIME ( #215, #104 ) ;
#22 = DIRECTION ( 'NONE',  ( 0.0000000000000000000, 1.000000000000000000, 0.0000000000000000000 ) ) ;
#23 = ADVANCED_FACE ( 'NONE', ( #154, #163 ), #70, .T. ) ;
#24 = CIRCLE ( 'NONE', #232, 2.853999999999999648 ) ;
#25 = MECHANICAL_CONTEXT ( 'NONE', #161, 'mechanical' ) ;
#26 = PRODUCT_DEFINITION ( 'UNKNOWN', '', #208, #181 ) ;
#27 = PERSON_AND_ORGANIZATION ( #60, #169 ) ;
#28 = CARTESIAN_POINT ( 'NONE',  ( 1.047444401652938823E-15, -3.673940397442055800E-17, 0.2999999999999996558 ) ) ;
#29 = ORIENTED_EDGE ( 'NONE', *, *, #159, .F. ) ;
#30 = EDGE_CURVE ( 'NONE', #179, #179, #198, .T. ) ;
#31 = CIRCLE ( 'NONE', #49, 2.500000000000000000 ) ;
#32 = LOCAL_TIME ( 15, 54, 54.00000000000000000, #8 ) ;
#33 = EDGE_CURVE ( 'NONE', #174, #174, #24, .T. ) ;
#34 = CLOSED_SHELL ( 'NONE', ( #194, #72, #113, #167 ) ) ;
#35 = EDGE_LOOP ( 'NONE', ( #170 ) ) ;
#36 = ORIENTED_EDGE ( 'NONE', *, *, #30, .F. ) ;
#37 = FACE_OUTER_BOUND ( 'NONE', #206, .T. ) ;
#38 = CARTESIAN_POINT ( 'NONE',  ( 0.0000000000000000000, 0.0000000000000000000, 0.0000000000000000000 ) ) ;
#39 = APPROVAL_STATUS ( 'not_yet_approved' ) ;
#40 = CARTESIAN_POINT ( 'NONE',  ( 7.895337722223343717E-14, -2.769311685025902762E-15, 22.61314598587939884 ) ) ;
#41 =( NAMED_UNIT ( * ) PLANE_ANGLE_UNIT ( ) SI_UNIT ( $, .RADIAN. ) );
#42 = DIRECTION ( 'NONE',  ( -3.491481338843133355E-15, 1.224646799147353207E-16, -1.000000000000000000 ) ) ;
#43 = DATE_TIME_ROLE ( 'creation_date' ) ;
#44 = CARTESIAN_POINT ( 'NONE',  ( 0.0000000000000000000, 0.0000000000000000000, 0.0000000000000000000 ) ) ;
#45 = DIRECTION ( 'NONE',  ( -4.048906680561816821E-31, -1.000000000000000000, -1.139665913614756882E-16 ) ) ;
#46 = PERSON_AND_ORGANIZATION_ROLE ( 'classification_officer' ) ;
#47 = APPROVAL_DATE_TIME ( #205, #213 ) ;
#48 = ORIENTED_EDGE ( 'NONE', *, *, #159, .T. ) ;
#49 = AXIS2_PLACEMENT_3D ( 'NONE', #82, #88, #22 ) ;
#50 = EDGE_CURVE ( 'NONE', #6, #6, #160, .T. ) ;
#51 = EDGE_LOOP ( 'NONE', ( #115 ) ) ;
#52 = EDGE_LOOP ( 'NONE', ( #171 ) ) ;
#53 = EDGE_LOOP ( 'NONE', ( #191 ) ) ;
#54 = CARTESIAN_POINT ( 'NONE',  ( 7.681258945454893382E-14, -2.694222958124176809E-15, 22.00000000000000000 ) ) ;
#55 = FACE_OUTER_BOUND ( 'NONE', #35, .T. ) ;
#56 = APPLICATION_PROTOCOL_DEFINITION ( 'international standard', 'config_control_design', 1994, #161 ) ;
#57 = AXIS2_PLACEMENT_3D ( 'NONE', #117, #145, #196 ) ;
#58 = APPROVAL ( #39, 'UNSPECIFIED' ) ;
#59 = DIRECTION ( 'NONE',  ( 3.491481338843133355E-15, -1.224646799147353207E-16, 1.000000000000000000 ) ) ;
#60 = PERSON ( 'UNSPECIFIED', 'UNSPECIFIED', 'UNSPECIFIED', ('UNSPECIFIED'), ('UNSPECIFIED'), ('UNSPECIFIED') ) ;
#61 = PLANE ( 'NONE',  #238 ) ;
#62 = CARTESIAN_POINT ( 'NONE',  ( 2.182175836776958284E-13, 2.499999999999992450, 62.50000000000000000 ) ) ;
#63 = PERSON_AND_ORGANIZATION_ROLE ( 'creator' ) ;
#64 = LOCAL_TIME ( 15, 54, 54.00000000000000000, #128 ) ;
#65 = DIRECTION ( 'NONE',  ( 0.0000000000000000000, 1.000000000000000000, 0.0000000000000000000 ) ) ;
#66 = PERSON_AND_ORGANIZATION ( #60, #169 ) ;
#67 = DIRECTION ( 'NONE',  ( 0.0000000000000000000, 1.000000000000000000, 0.0000000000000000000 ) ) ;
#68 = AXIS2_PLACEMENT_3D ( 'NONE', #157, #217, #123 ) ;
#69 = APPROVAL ( #122, 'UNSPECIFIED' ) ;
#70 = CONICAL_SURFACE ( 'NONE', #18, 2.499999999999994671, 0.5235987755982915992 ) ;
#71 = SECURITY_CLASSIFICATION_LEVEL ( 'unclassified' ) ;
#72 = ADVANCED_FACE ( 'NONE', ( #80, #177 ), #125, .T. ) ;
#73 =( GEOMETRIC_REPRESENTATION_CONTEXT ( 3 ) GLOBAL_UNCERTAINTY_ASSIGNED_CONTEXT ( ( #164 ) ) GLOBAL_UNIT_ASSIGNED_CONTEXT ( ( #144, #41, #176 ) ) REPRESENTATION_CONTEXT ( 'NONE', 'WORKASPACE' ) );
#74 = ORIENTED_EDGE ( 'NONE', *, *, #126, .T. ) ;
#75 = EDGE_LOOP ( 'NONE', ( #36 ) ) ;
#76 = ORIENTED_EDGE ( 'NONE', *, *, #33, .F. ) ;
#77 = PRODUCT_RELATED_PRODUCT_CATEGORY ( 'detail', '', ( #211 ) ) ;
#78 = AXIS2_PLACEMENT_3D ( 'NONE', #7, #137, #242 ) ;
#79 = APPROVAL_PERSON_ORGANIZATION ( #189, #213, #203 ) ;
#80 = FACE_BOUND ( 'NONE', #95, .T. ) ;
#81 = DIRECTION ( 'NONE',  ( 4.275831445896958607E-31, 1.000000000000000000, 1.224646799147353207E-16 ) ) ;
#82 = CARTESIAN_POINT ( 'NONE',  ( 2.182175836776958284E-13, -7.654042494670957804E-15, 62.50000000000000000 ) ) ;
#83 = FACE_OUTER_BOUND ( 'NONE', #52, .T. ) ;
#84 = PERSON_AND_ORGANIZATION_ROLE ( 'design_owner' ) ;
#85 = FACE_OUTER_BOUND ( 'NONE', #75, .T. ) ;
#86 = CARTESIAN_POINT ( 'NONE',  ( 2.199633243471174140E-13, 1.999999999999992228, 63.00000000000000000 ) ) ;
#87 = DIRECTION ( 'NONE',  ( 1.000000000000000000, 0.0000000000000000000, 0.0000000000000000000 ) ) ;
#88 = DIRECTION ( 'NONE',  ( -3.491481338843133355E-15, 1.224646799147353207E-16, -1.000000000000000000 ) ) ;
#89 = APPROVAL_STATUS ( 'not_yet_approved' ) ;
#90 = CARTESIAN_POINT ( 'NONE',  ( 7.895337722223343717E-14, -2.769311685025902762E-15, 22.61314598587939884 ) ) ;
#91 = FACE_OUTER_BOUND ( 'NONE', #51, .T. ) ;
#92 = AXIS2_PLACEMENT_3D ( 'NONE', #40, #121, #240 ) ;
#93 = APPROVAL_PERSON_ORGANIZATION ( #27, #69, #219 ) ;
#94 = EDGE_LOOP ( 'NONE', ( #76 ) ) ;
#95 = EDGE_LOOP ( 'NONE', ( #29 ) ) ;
#96 = CC_DESIGN_DATE_AND_TIME_ASSIGNMENT ( #183, #221, ( #150 ) ) ;
#97 = AXIS2_PLACEMENT_3D ( 'NONE', #184, #165, #67 ) ;
#98 = PLANE ( 'NONE',  #143 ) ;
#99 = CC_DESIGN_PERSON_AND_ORGANIZATION_ASSIGNMENT ( #237, #63, ( #26 ) ) ;
#100 = DIRECTION ( 'NONE',  ( 3.491481338843133355E-15, -1.224646799147353207E-16, 1.000000000000000000 ) ) ;
#101 = COORDINATED_UNIVERSAL_TIME_OFFSET ( 1, 0, .AHEAD. ) ;
#102 = PRODUCT_DEFINITION_SHAPE ( 'NONE', 'NONE',  #26 ) ;
#103 = CARTESIAN_POINT ( 'NONE',  ( 7.681258945454893382E-14, -2.694222958124176809E-15, 22.00000000000000000 ) ) ;
#104 = LOCAL_TIME ( 15, 54, 54.00000000000000000, #136 ) ;
#105 = CALENDAR_DATE ( 2021, 30, 11 ) ;
#106 = CALENDAR_DATE ( 2021, 30, 11 ) ;
#107 = FACE_OUTER_BOUND ( 'NONE', #17, .T. ) ;
#108 = DIRECTION ( 'NONE',  ( -3.491481338843133355E-15, 1.224646799147353207E-16, -1.000000000000000000 ) ) ;
#109 = CALENDAR_DATE ( 2021, 30, 11 ) ;
#110 = CIRCLE ( 'NONE', #68, 2.554000000000000714 ) ;
#111 = CC_DESIGN_APPROVAL ( #213, ( #150 ) ) ;
#112 = ORIENTED_EDGE ( 'NONE', *, *, #10, .T. ) ;
#113 = ADVANCED_FACE ( 'NONE', ( #127, #37 ), #134, .T. ) ;
#114 = EDGE_LOOP ( 'NONE', ( #139 ) ) ;
#115 = ORIENTED_EDGE ( 'NONE', *, *, #241, .F. ) ;
#116 = CC_DESIGN_PERSON_AND_ORGANIZATION_ASSIGNMENT ( #236, #84, ( #211 ) ) ;
#117 = CARTESIAN_POINT ( 'NONE',  ( 2.199633243471174140E-13, -7.715274834628325378E-15, 63.00000000000000000 ) ) ;
#118 = AXIS2_PLACEMENT_3D ( 'NONE', #54, #42, #133 ) ;
#119 = PLANE ( 'NONE',  #223 ) ;
#120 = APPROVAL_DATE_TIME ( #158, #69 ) ;
#121 = DIRECTION ( 'NONE',  ( -3.491481338843133355E-15, 1.224646799147353207E-16, -1.000000000000000000 ) ) ;
#122 = APPROVAL_STATUS ( 'not_yet_approved' ) ;
#123 = DIRECTION ( 'NONE',  ( 4.275831445896959482E-31, 1.000000000000000000, 1.224646799147353454E-16 ) ) ;
#124 = CARTESIAN_POINT ( 'NONE',  ( 7.681258945454893382E-14, 2.853999999999996984, 22.00000000000000000 ) ) ;
#125 = CONICAL_SURFACE ( 'NONE', #15, 2.853999999999997428, 0.7853981633974438381 ) ;
#126 = EDGE_CURVE ( 'NONE', #201, #201, #1, .T. ) ;
#127 = FACE_OUTER_BOUND ( 'NONE', #224, .T. ) ;
#128 = COORDINATED_UNIVERSAL_TIME_OFFSET ( 1, 0, .AHEAD. ) ;
#129 = APPROVAL_DATE_TIME ( #234, #58 ) ;
#130 = ADVANCED_BREP_SHAPE_REPRESENTATION ( '969453', ( #147, #227, #135 ), #73 ) ;
#131 = EDGE_LOOP ( 'NONE', ( #14 ) ) ;
#132 = CLOSED_SHELL ( 'NONE', ( #4, #23, #210, #226, #156 ) ) ;
#133 = DIRECTION ( 'NONE',  ( 0.0000000000000000000, 1.000000000000000000, 0.0000000000000000000 ) ) ;
#134 = CYLINDRICAL_SURFACE ( 'NONE', #9, 2.853999999999998760 ) ;
#135 = AXIS2_PLACEMENT_3D ( 'NONE', #44, #153, #87 ) ;
#136 = COORDINATED_UNIVERSAL_TIME_OFFSET ( 1, 0, .AHEAD. ) ;
#137 = DIRECTION ( 'NONE',  ( -3.491481338843133355E-15, 1.224646799147353207E-16, -1.000000000000000000 ) ) ;
#138 = CARTESIAN_POINT ( 'NONE',  ( 1.514188661106529085E-30, 2.554000000000000714, 4.336808689942017736E-16 ) ) ;
#139 = ORIENTED_EDGE ( 'NONE', *, *, #50, .T. ) ;
#140 = CC_DESIGN_PERSON_AND_ORGANIZATION_ASSIGNMENT ( #13, #46, ( #150 ) ) ;
#141 = VERTEX_POINT ( 'NONE', #142 ) ;
#142 = CARTESIAN_POINT ( 'NONE',  ( 7.895337722223343717E-14, 2.499999999999992450, 22.61314598587939884 ) ) ;
#143 = AXIS2_PLACEMENT_3D ( 'NONE', #152, #100, #230 ) ;
#144 =( LENGTH_UNIT ( ) NAMED_UNIT ( * ) SI_UNIT ( .MILLI., .METRE. ) );
#145 = DIRECTION ( 'NONE',  ( -3.491481338843133355E-15, 1.224646799147353207E-16, -1.000000000000000000 ) ) ;
#146 = ORIENTED_EDGE ( 'NONE', *, *, #50, .F. ) ;
#147 = MANIFOLD_SOLID_BREP ( 'Corps-Déplacer/Copier1[1]', #132 ) ;
#148 = EDGE_LOOP ( 'NONE', ( #112 ) ) ;
#149 = EDGE_LOOP ( 'NONE', ( #48 ) ) ;
#150 = SECURITY_CLASSIFICATION ( '', '', #71 ) ;
#151 = DIRECTION ( 'NONE',  ( -3.491481338843133355E-15, 1.224646799147353207E-16, -1.000000000000000000 ) ) ;
#152 = CARTESIAN_POINT ( 'NONE',  ( 2.110706549122227609E-31, -7.403361978667661196E-33, 6.045303824598383410E-17 ) ) ;
#153 = DIRECTION ( 'NONE',  ( 0.0000000000000000000, 0.0000000000000000000, 1.000000000000000000 ) ) ;
#154 = FACE_OUTER_BOUND ( 'NONE', #94, .T. ) ;
#155 = CALENDAR_DATE ( 2021, 30, 11 ) ;
#156 = ADVANCED_FACE ( 'NONE', ( #85 ), #119, .F. ) ;
#157 = CARTESIAN_POINT ( 'NONE',  ( 4.221413098244455218E-31, -1.480672395733532239E-32, 1.209060764919676682E-16 ) ) ;
#158 = DATE_AND_TIME ( #105, #32 ) ;
#159 = EDGE_CURVE ( 'NONE', #231, #231, #110, .T. ) ;
#160 = CIRCLE ( 'NONE', #178, 2.853999999999997428 ) ;
#161 = APPLICATION_CONTEXT ( 'configuration controlled 3d designs of mechanical parts and assemblies' ) ;
#162 = PERSON_AND_ORGANIZATION ( #60, #169 ) ;
#163 = FACE_BOUND ( 'NONE', #148, .T. ) ;
#164 = UNCERTAINTY_MEASURE_WITH_UNIT (LENGTH_MEASURE( 1.000000000000000082E-05 ), #144, 'distance_accuracy_value', 'NONE');
#165 = DIRECTION ( 'NONE',  ( -3.491481338843133355E-15, 1.224646799147353207E-16, -1.000000000000000000 ) ) ;
#166 = APPROVAL_PERSON_ORGANIZATION ( #239, #58, #200 ) ;
#167 = ADVANCED_FACE ( 'NONE', ( #107 ), #233, .T. ) ;
#168 = COORDINATED_UNIVERSAL_TIME_OFFSET ( 1, 0, .AHEAD. ) ;
#169 = ORGANIZATION ( 'UNSPECIFIED', 'UNSPECIFIED', '' ) ;
#170 = ORIENTED_EDGE ( 'NONE', *, *, #241, .T. ) ;
#171 = ORIENTED_EDGE ( 'NONE', *, *, #33, .T. ) ;
#172 = CC_DESIGN_APPROVAL ( #69, ( #26 ) ) ;
#173 = FACE_OUTER_BOUND ( 'NONE', #131, .T. ) ;
#174 = VERTEX_POINT ( 'NONE', #195 ) ;
#175 = CYLINDRICAL_SURFACE ( 'NONE', #78, 2.499999999999997335 ) ;
#176 =( NAMED_UNIT ( * ) SI_UNIT ( $, .STERADIAN. ) SOLID_ANGLE_UNIT ( ) );
#177 = FACE_OUTER_BOUND ( 'NONE', #114, .T. ) ;
#178 = AXIS2_PLACEMENT_3D ( 'NONE', #28, #108, #216 ) ;
#179 = VERTEX_POINT ( 'NONE', #86 ) ;
#180 = CARTESIAN_POINT ( 'NONE',  ( 1.047444401652939809E-15, 2.853999999999997428, 0.2999999999999999889 ) ) ;
#181 = DESIGN_CONTEXT ( 'detailed design', #16, 'design' ) ;
#182 = DIRECTION ( 'NONE',  ( -4.275831445896958607E-31, -1.000000000000000000, -1.224646799147353207E-16 ) ) ;
#183 = DATE_AND_TIME ( #109, #64 ) ;
#184 = CARTESIAN_POINT ( 'NONE',  ( 2.199633243471174140E-13, -7.715274834628325378E-15, 63.00000000000000000 ) ) ;
#185 = CC_DESIGN_DATE_AND_TIME_ASSIGNMENT ( #21, #43, ( #26 ) ) ;
#186 = SHAPE_DEFINITION_REPRESENTATION ( #102, #130 ) ;
#187 = CIRCLE ( 'NONE', #92, 2.499999999999994671 ) ;
#188 = CC_DESIGN_APPROVAL ( #58, ( #208 ) ) ;
#189 = PERSON_AND_ORGANIZATION ( #60, #169 ) ;
#190 = CC_DESIGN_PERSON_AND_ORGANIZATION_ASSIGNMENT ( #66, #243, ( #208 ) ) ;
#191 = ORIENTED_EDGE ( 'NONE', *, *, #30, .T. ) ;
#192 = DIRECTION ( 'NONE',  ( 3.491481338843133355E-15, -1.224646799147353207E-16, 1.000000000000000000 ) ) ;
#193 = CARTESIAN_POINT ( 'NONE',  ( 1.047444401652938823E-15, -3.673940397442055800E-17, 0.2999999999999996558 ) ) ;
#194 = ADVANCED_FACE ( 'NONE', ( #19 ), #98, .F. ) ;
#195 = CARTESIAN_POINT ( 'NONE',  ( 7.681258945454893382E-14, 2.853999999999996984, 22.00000000000000000 ) ) ;
#196 = DIRECTION ( 'NONE',  ( 0.0000000000000000000, 1.000000000000000000, 0.0000000000000000000 ) ) ;
#197 = DIRECTION ( 'NONE',  ( 3.491481338843133355E-15, -1.224646799147353207E-16, 1.000000000000000000 ) ) ;
#198 = CIRCLE ( 'NONE', #57, 2.000000000000000000 ) ;
#199 = VERTEX_POINT ( 'NONE', #62 ) ;
#200 = APPROVAL_ROLE ( '' ) ;
#201 = VERTEX_POINT ( 'NONE', #124 ) ;
#202 = DIRECTION ( 'NONE',  ( -3.491481338843133355E-15, 1.224646799147353207E-16, -1.000000000000000000 ) ) ;
#203 = APPROVAL_ROLE ( '' ) ;
#204 = CONICAL_SURFACE ( 'NONE', #97, 2.000000000000000000, 0.7853981633974479459 ) ;
#205 = DATE_AND_TIME ( #106, #218 ) ;
#206 = EDGE_LOOP ( 'NONE', ( #74 ) ) ;
#207 = AXIS2_PLACEMENT_3D ( 'NONE', #20, #192, #182 ) ;
#208 = PRODUCT_DEFINITION_FORMATION_WITH_SPECIFIED_SOURCE ( 'ANY', '', #211, .NOT_KNOWN. ) ;
#209 = ORIENTED_EDGE ( 'NONE', *, *, #126, .F. ) ;
#210 = ADVANCED_FACE ( 'NONE', ( #173, #55 ), #175, .T. ) ;
#211 = PRODUCT ( '969453', '969453', '', ( #25 ) ) ;
#212 = DIRECTION ( 'NONE',  ( -3.491481338843133355E-15, 1.224646799147353207E-16, -1.000000000000000000 ) ) ;
#213 = APPROVAL ( #89, 'UNSPECIFIED' ) ;
#214 = DIRECTION ( 'NONE',  ( -4.275831445896958607E-31, -1.000000000000000000, -1.224646799147353207E-16 ) ) ;
#215 = CALENDAR_DATE ( 2021, 30, 11 ) ;
#216 = DIRECTION ( 'NONE',  ( 4.048906680561816821E-31, 1.000000000000000000, 1.139665913614756882E-16 ) ) ;
#217 = DIRECTION ( 'NONE',  ( -3.491481338843133355E-15, 1.224646799147353207E-16, -1.000000000000000000 ) ) ;
#218 = LOCAL_TIME ( 15, 54, 54.00000000000000000, #168 ) ;
#219 = APPROVAL_ROLE ( '' ) ;
#220 = APPLICATION_PROTOCOL_DEFINITION ( 'international standard', 'config_control_design', 1994, #16 ) ;
#221 = DATE_TIME_ROLE ( 'classification_date' ) ;
#222 = DIRECTION ( 'NONE',  ( 0.0000000000000000000, 1.000000000000000000, 0.0000000000000000000 ) ) ;
#223 = AXIS2_PLACEMENT_3D ( 'NONE', #5, #212, #81 ) ;
#224 = EDGE_LOOP ( 'NONE', ( #146 ) ) ;
#225 = PERSON_AND_ORGANIZATION_ROLE ( 'creator' ) ;
#226 = ADVANCED_FACE ( 'NONE', ( #91, #11 ), #204, .T. ) ;
#227 = MANIFOLD_SOLID_BREP ( 'Corps-Déplacer/Copier1[2]', #34 ) ;
#228 = DIRECTION ( 'NONE',  ( 4.275831445896959482E-31, 1.000000000000000000, 1.224646799147353207E-16 ) ) ;
#229 = CC_DESIGN_PERSON_AND_ORGANIZATION_ASSIGNMENT ( #162, #225, ( #208 ) ) ;
#230 = DIRECTION ( 'NONE',  ( -4.275831445896958607E-31, -1.000000000000000000, -1.224646799147353207E-16 ) ) ;
#231 = VERTEX_POINT ( 'NONE', #138 ) ;
#232 = AXIS2_PLACEMENT_3D ( 'NONE', #103, #235, #222 ) ;
#233 = PLANE ( 'NONE',  #207 ) ;
#234 = DATE_AND_TIME ( #155, #12 ) ;
#235 = DIRECTION ( 'NONE',  ( -3.491481338843133355E-15, 1.224646799147353207E-16, -1.000000000000000000 ) ) ;
#236 = PERSON_AND_ORGANIZATION ( #60, #169 ) ;
#237 = PERSON_AND_ORGANIZATION ( #60, #169 ) ;
#238 = AXIS2_PLACEMENT_3D ( 'NONE', #3, #197, #214 ) ;
#239 = PERSON_AND_ORGANIZATION ( #60, #169 ) ;
#240 = DIRECTION ( 'NONE',  ( 0.0000000000000000000, 1.000000000000000000, 0.0000000000000000000 ) ) ;
#241 = EDGE_CURVE ( 'NONE', #199, #199, #31, .T. ) ;
#242 = DIRECTION ( 'NONE',  ( 4.275831445896959482E-31, 1.000000000000000000, 1.224646799147353454E-16 ) ) ;
#243 = PERSON_AND_ORGANIZATION_ROLE ( 'design_supplier' ) ;
ENDSEC;
END-ISO-10303-21;
