ISO-10303-21;
HEADER;
FILE_DESCRIPTION (( 'STEP AP203' ),
    '1' );
FILE_NAME ('969452.step',
    '2021-11-30T14:54:53',
    ( '' ),
    ( '' ),
    'SwSTEP 2.0',
    'SolidWorks 2019',
    '' );
FILE_SCHEMA (( 'CONFIG_CONTROL_DESIGN' ));
ENDSEC;

DATA;
#1 = DIRECTION ( 'NONE',  ( 4.275831445896958607E-31, 1.000000000000000000, 1.224646799147353454E-16 ) ) ;
#2 = PERSON_AND_ORGANIZATION ( #135, #74 ) ;
#3 =( GEOMETRIC_REPRESENTATION_CONTEXT ( 3 ) GLOBAL_UNCERTAINTY_ASSIGNED_CONTEXT ( ( #165 ) ) GLOBAL_UNIT_ASSIGNED_CONTEXT ( ( #187, #168, #125 ) ) REPRESENTATION_CONTEXT ( 'NONE', 'WORKASPACE' ) );
#4 = CIRCLE ( 'NONE', #141, 2.504000000000000004 ) ;
#5 = EDGE_CURVE ( 'NONE', #81, #81, #235, .T. ) ;
#6 = DIRECTION ( 'NONE',  ( -4.275831445896958607E-31, -1.000000000000000000, -1.224646799147353207E-16 ) ) ;
#7 = CALENDAR_DATE ( 2021, 30, 11 ) ;
#8 = DIRECTION ( 'NONE',  ( -3.491481338843133355E-15, 1.224646799147353207E-16, -1.000000000000000000 ) ) ;
#9 = AXIS2_PLACEMENT_3D ( 'NONE', #219, #137, #134 ) ;
#10 = CARTESIAN_POINT ( 'NONE',  ( -1.070668194052598586E-30, 3.755398495785292151E-32, -3.066515585064973036E-16 ) ) ;
#11 = APPROVAL_PERSON_ORGANIZATION ( #189, #123, #166 ) ;
#12 = CARTESIAN_POINT ( 'NONE',  ( 0.0000000000000000000, 0.0000000000000000000, 0.0000000000000000000 ) ) ;
#13 = CARTESIAN_POINT ( 'NONE',  ( 2.199633243471174140E-13, -7.715274834628325378E-15, 63.00000000000000000 ) ) ;
#14 = DATE_TIME_ROLE ( 'creation_date' ) ;
#15 = EDGE_LOOP ( 'NONE', ( #188 ) ) ;
#16 = APPROVAL ( #31, 'UNSPECIFIED' ) ;
#17 = ORIENTED_EDGE ( 'NONE', *, *, #39, .T. ) ;
#18 = COORDINATED_UNIVERSAL_TIME_OFFSET ( 1, 0, .AHEAD. ) ;
#19 = CYLINDRICAL_SURFACE ( 'NONE', #180, 2.499999999999997335 ) ;
#20 = ORIENTED_EDGE ( 'NONE', *, *, #61, .T. ) ;
#21 = PLANE ( 'NONE',  #120 ) ;
#22 = DIRECTION ( 'NONE',  ( 0.0000000000000000000, 1.000000000000000000, 0.0000000000000000000 ) ) ;
#23 = DIRECTION ( 'NONE',  ( 4.275831445896958607E-31, 1.000000000000000000, 1.224646799147352961E-16 ) ) ;
#24 = PERSON_AND_ORGANIZATION_ROLE ( 'classification_officer' ) ;
#25 = CC_DESIGN_APPROVAL ( #16, ( #119 ) ) ;
#26 = AXIS2_PLACEMENT_3D ( 'NONE', #35, #124, #156 ) ;
#27 = ADVANCED_BREP_SHAPE_REPRESENTATION ( '969452', ( #242, #75, #40 ), #3 ) ;
#28 = CARTESIAN_POINT ( 'NONE',  ( 1.047444401652938823E-15, -3.673940397442055800E-17, 0.2999999999999996558 ) ) ;
#29 = COORDINATED_UNIVERSAL_TIME_OFFSET ( 1, 0, .AHEAD. ) ;
#30 = EDGE_LOOP ( 'NONE', ( #169 ) ) ;
#31 = APPROVAL_STATUS ( 'not_yet_approved' ) ;
#32 = ORIENTED_EDGE ( 'NONE', *, *, #215, .T. ) ;
#33 = FACE_OUTER_BOUND ( 'NONE', #15, .T. ) ;
#34 = CC_DESIGN_PERSON_AND_ORGANIZATION_ASSIGNMENT ( #60, #217, ( #119 ) ) ;
#35 = CARTESIAN_POINT ( 'NONE',  ( 2.199633243471174140E-13, -7.715274834628325378E-15, 63.00000000000000000 ) ) ;
#36 = FACE_OUTER_BOUND ( 'NONE', #90, .T. ) ;
#37 = DATE_TIME_ROLE ( 'classification_date' ) ;
#38 = CC_DESIGN_APPROVAL ( #211, ( #144 ) ) ;
#39 = EDGE_CURVE ( 'NONE', #41, #41, #225, .T. ) ;
#40 = AXIS2_PLACEMENT_3D ( 'NONE', #12, #128, #47 ) ;
#41 = VERTEX_POINT ( 'NONE', #122 ) ;
#42 = VERTEX_POINT ( 'NONE', #87 ) ;
#43 = CARTESIAN_POINT ( 'NONE',  ( 0.0000000000000000000, 0.0000000000000000000, 0.0000000000000000000 ) ) ;
#44 = VERTEX_POINT ( 'NONE', #171 ) ;
#45 = PERSON_AND_ORGANIZATION ( #135, #74 ) ;
#46 = EDGE_LOOP ( 'NONE', ( #95 ) ) ;
#47 = DIRECTION ( 'NONE',  ( 1.000000000000000000, 0.0000000000000000000, 0.0000000000000000000 ) ) ;
#48 = EDGE_LOOP ( 'NONE', ( #190 ) ) ;
#49 = ORIENTED_EDGE ( 'NONE', *, *, #61, .F. ) ;
#50 = DIRECTION ( 'NONE',  ( -3.491481338843133355E-15, 1.224646799147353207E-16, -1.000000000000000000 ) ) ;
#51 = EDGE_LOOP ( 'NONE', ( #148 ) ) ;
#52 = DIRECTION ( 'NONE',  ( -3.491481338843133355E-15, 1.224646799147353207E-16, -1.000000000000000000 ) ) ;
#53 = CALENDAR_DATE ( 2021, 30, 11 ) ;
#54 = FACE_OUTER_BOUND ( 'NONE', #224, .T. ) ;
#55 = PLANE ( 'NONE',  #234 ) ;
#56 = EDGE_CURVE ( 'NONE', #200, #200, #216, .T. ) ;
#57 = APPROVAL_PERSON_ORGANIZATION ( #2, #211, #227 ) ;
#58 = CC_DESIGN_APPROVAL ( #123, ( #94 ) ) ;
#59 = DIRECTION ( 'NONE',  ( 3.491481338843133355E-15, -1.224646799147353207E-16, 1.000000000000000000 ) ) ;
#60 = PERSON_AND_ORGANIZATION ( #135, #74 ) ;
#61 = EDGE_CURVE ( 'NONE', #42, #42, #4, .T. ) ;
#62 = FACE_OUTER_BOUND ( 'NONE', #46, .T. ) ;
#63 = CALENDAR_DATE ( 2021, 30, 11 ) ;
#64 = ORIENTED_EDGE ( 'NONE', *, *, #39, .F. ) ;
#65 = CONICAL_SURFACE ( 'NONE', #213, 2.499999999999994671, 0.5235987755982970393 ) ;
#66 = CC_DESIGN_SECURITY_CLASSIFICATION ( #144, ( #94 ) ) ;
#67 = EDGE_LOOP ( 'NONE', ( #20 ) ) ;
#68 = EDGE_CURVE ( 'NONE', #101, #101, #96, .T. ) ;
#69 = DIRECTION ( 'NONE',  ( 0.0000000000000000000, 1.000000000000000000, 0.0000000000000000000 ) ) ;
#70 = APPROVAL_STATUS ( 'not_yet_approved' ) ;
#71 = ORIENTED_EDGE ( 'NONE', *, *, #68, .F. ) ;
#72 = FACE_OUTER_BOUND ( 'NONE', #48, .T. ) ;
#73 = PERSON_AND_ORGANIZATION ( #135, #74 ) ;
#74 = ORGANIZATION ( 'UNSPECIFIED', 'UNSPECIFIED', '' ) ;
#75 = MANIFOLD_SOLID_BREP ( 'Corps-Déplacer/Copier1[2]', #139 ) ;
#76 = DIRECTION ( 'NONE',  ( 3.491481338843133355E-15, -1.224646799147353207E-16, 1.000000000000000000 ) ) ;
#77 = DIRECTION ( 'NONE',  ( -3.491481338843133355E-15, 1.224646799147353207E-16, -1.000000000000000000 ) ) ;
#78 = CC_DESIGN_PERSON_AND_ORGANIZATION_ASSIGNMENT ( #73, #24, ( #144 ) ) ;
#79 = LOCAL_TIME ( 15, 54, 53.00000000000000000, #18 ) ;
#80 = CC_DESIGN_PERSON_AND_ORGANIZATION_ASSIGNMENT ( #205, #152, ( #94 ) ) ;
#81 = VERTEX_POINT ( 'NONE', #233 ) ;
#82 = AXIS2_PLACEMENT_3D ( 'NONE', #176, #195, #22 ) ;
#83 = FACE_OUTER_BOUND ( 'NONE', #51, .T. ) ;
#84 = ADVANCED_FACE ( 'NONE', ( #54, #157 ), #65, .T. ) ;
#85 = FACE_BOUND ( 'NONE', #107, .T. ) ;
#86 = APPROVAL_STATUS ( 'not_yet_approved' ) ;
#87 = CARTESIAN_POINT ( 'NONE',  ( -1.710569414459005214E-46, 2.504000000000000004, 0.0000000000000000000 ) ) ;
#88 = CONICAL_SURFACE ( 'NONE', #9, 2.803999999999997161, 0.7853981633974431720 ) ;
#89 = CALENDAR_DATE ( 2021, 30, 11 ) ;
#90 = EDGE_LOOP ( 'NONE', ( #127 ) ) ;
#91 = DIRECTION ( 'NONE',  ( -4.275831445896958607E-31, -1.000000000000000000, -1.224646799147353207E-16 ) ) ;
#92 = COORDINATED_UNIVERSAL_TIME_OFFSET ( 1, 0, .AHEAD. ) ;
#93 = DIRECTION ( 'NONE',  ( 0.0000000000000000000, 1.000000000000000000, 0.0000000000000000000 ) ) ;
#94 = PRODUCT_DEFINITION_FORMATION_WITH_SPECIFIED_SOURCE ( 'ANY', '', #179, .NOT_KNOWN. ) ;
#95 = ORIENTED_EDGE ( 'NONE', *, *, #68, .T. ) ;
#96 = CIRCLE ( 'NONE', #199, 2.804000000000001602 ) ;
#97 = CC_DESIGN_DATE_AND_TIME_ASSIGNMENT ( #231, #37, ( #144 ) ) ;
#98 = CARTESIAN_POINT ( 'NONE',  ( 7.681258945454893382E-14, 2.102663215291921980E-32, 22.00000000000000000 ) ) ;
#99 = ADVANCED_FACE ( 'NONE', ( #83, #193 ), #175, .T. ) ;
#100 = DIRECTION ( 'NONE',  ( 0.0000000000000000000, 1.000000000000000000, 0.0000000000000000000 ) ) ;
#101 = VERTEX_POINT ( 'NONE', #184 ) ;
#102 = LOCAL_TIME ( 15, 54, 53.00000000000000000, #140 ) ;
#103 = AXIS2_PLACEMENT_3D ( 'NONE', #110, #182, #111 ) ;
#104 = CARTESIAN_POINT ( 'NONE',  ( 7.681258945454893382E-14, -2.694222958124176809E-15, 22.00000000000000000 ) ) ;
#105 = CALENDAR_DATE ( 2021, 30, 11 ) ;
#106 = VERTEX_POINT ( 'NONE', #151 ) ;
#107 = EDGE_LOOP ( 'NONE', ( #49 ) ) ;
#108 = PERSON_AND_ORGANIZATION_ROLE ( 'design_owner' ) ;
#109 = EDGE_LOOP ( 'NONE', ( #172 ) ) ;
#110 = CARTESIAN_POINT ( 'NONE',  ( 7.865100606860567412E-14, -2.758705932638653108E-15, 22.52654344550095189 ) ) ;
#111 = DIRECTION ( 'NONE',  ( 0.0000000000000000000, 1.000000000000000000, 0.0000000000000000000 ) ) ;
#112 = ADVANCED_FACE ( 'NONE', ( #36, #33 ), #19, .T. ) ;
#113 = FACE_OUTER_BOUND ( 'NONE', #131, .T. ) ;
#114 = DATE_AND_TIME ( #53, #149 ) ;
#115 = LOCAL_TIME ( 15, 54, 53.00000000000000000, #239 ) ;
#116 = SECURITY_CLASSIFICATION_LEVEL ( 'unclassified' ) ;
#117 = PRODUCT_DEFINITION_SHAPE ( 'NONE', 'NONE',  #119 ) ;
#118 = APPROVAL_PERSON_ORGANIZATION ( #206, #16, #237 ) ;
#119 = PRODUCT_DEFINITION ( 'UNKNOWN', '', #94, #183 ) ;
#120 = AXIS2_PLACEMENT_3D ( 'NONE', #236, #174, #209 ) ;
#121 = CLOSED_SHELL ( 'NONE', ( #136, #84, #112, #204, #197 ) ) ;
#122 = CARTESIAN_POINT ( 'NONE',  ( 7.681258945454893382E-14, 2.803999999999999382, 22.00000000000000000 ) ) ;
#123 = APPROVAL ( #86, 'UNSPECIFIED' ) ;
#124 = DIRECTION ( 'NONE',  ( -3.491481338843133355E-15, 1.224646799147353207E-16, -1.000000000000000000 ) ) ;
#125 =( NAMED_UNIT ( * ) SI_UNIT ( $, .STERADIAN. ) SOLID_ANGLE_UNIT ( ) );
#126 = PERSON_AND_ORGANIZATION_ROLE ( 'creator' ) ;
#127 = ORIENTED_EDGE ( 'NONE', *, *, #56, .F. ) ;
#128 = DIRECTION ( 'NONE',  ( 0.0000000000000000000, 0.0000000000000000000, 1.000000000000000000 ) ) ;
#129 = EDGE_LOOP ( 'NONE', ( #64 ) ) ;
#130 = APPLICATION_CONTEXT ( 'configuration controlled 3d designs of mechanical parts and assemblies' ) ;
#131 = EDGE_LOOP ( 'NONE', ( #155 ) ) ;
#132 = FACE_OUTER_BOUND ( 'NONE', #30, .T. ) ;
#133 = AXIS2_PLACEMENT_3D ( 'NONE', #196, #59, #6 ) ;
#134 = DIRECTION ( 'NONE',  ( -4.121105444480537398E-31, -1.000000000000000000, -1.159988059007316907E-16 ) ) ;
#135 = PERSON ( 'UNSPECIFIED', 'UNSPECIFIED', 'UNSPECIFIED', ('UNSPECIFIED'), ('UNSPECIFIED'), ('UNSPECIFIED') ) ;
#136 = ADVANCED_FACE ( 'NONE', ( #62 ), #146, .F. ) ;
#137 = DIRECTION ( 'NONE',  ( 3.491481338843133355E-15, -1.224646799147353207E-16, 1.000000000000000000 ) ) ;
#138 = DIRECTION ( 'NONE',  ( -4.275831445896958607E-31, -1.000000000000000000, -1.224646799147353207E-16 ) ) ;
#139 = CLOSED_SHELL ( 'NONE', ( #142, #167, #99, #178 ) ) ;
#140 = COORDINATED_UNIVERSAL_TIME_OFFSET ( 1, 0, .AHEAD. ) ;
#141 = AXIS2_PLACEMENT_3D ( 'NONE', #10, #8, #1 ) ;
#142 = ADVANCED_FACE ( 'NONE', ( #194 ), #55, .F. ) ;
#143 = PRODUCT_RELATED_PRODUCT_CATEGORY ( 'detail', '', ( #179 ) ) ;
#144 = SECURITY_CLASSIFICATION ( '', '', #116 ) ;
#145 = DIRECTION ( 'NONE',  ( -3.491481338843133355E-15, 1.224646799147353207E-16, -1.000000000000000000 ) ) ;
#146 = PLANE ( 'NONE',  #133 ) ;
#147 = DATE_AND_TIME ( #63, #115 ) ;
#148 = ORIENTED_EDGE ( 'NONE', *, *, #203, .F. ) ;
#149 = LOCAL_TIME ( 15, 54, 53.00000000000000000, #92 ) ;
#150 = DATE_AND_TIME ( #89, #79 ) ;
#151 = CARTESIAN_POINT ( 'NONE',  ( 2.199633243471174140E-13, 1.999999999999992228, 63.00000000000000000 ) ) ;
#152 = PERSON_AND_ORGANIZATION_ROLE ( 'design_supplier' ) ;
#153 = DIRECTION ( 'NONE',  ( 0.0000000000000000000, 1.000000000000000000, 0.0000000000000000000 ) ) ;
#154 = AXIS2_PLACEMENT_3D ( 'NONE', #104, #228, #100 ) ;
#155 = ORIENTED_EDGE ( 'NONE', *, *, #203, .T. ) ;
#156 = DIRECTION ( 'NONE',  ( 0.0000000000000000000, 1.000000000000000000, 0.0000000000000000000 ) ) ;
#157 = FACE_BOUND ( 'NONE', #109, .T. ) ;
#158 = CC_DESIGN_PERSON_AND_ORGANIZATION_ASSIGNMENT ( #223, #108, ( #179 ) ) ;
#159 = CC_DESIGN_PERSON_AND_ORGANIZATION_ASSIGNMENT ( #45, #126, ( #94 ) ) ;
#160 = AXIS2_PLACEMENT_3D ( 'NONE', #28, #50, #208 ) ;
#161 = APPLICATION_CONTEXT ( 'configuration controlled 3d designs of mechanical parts and assemblies' ) ;
#162 = FACE_OUTER_BOUND ( 'NONE', #129, .T. ) ;
#163 = MECHANICAL_CONTEXT ( 'NONE', #130, 'mechanical' ) ;
#164 = PLANE ( 'NONE',  #241 ) ;
#165 = UNCERTAINTY_MEASURE_WITH_UNIT (LENGTH_MEASURE( 1.000000000000000082E-05 ), #187, 'distance_accuracy_value', 'NONE');
#166 = APPROVAL_ROLE ( '' ) ;
#167 = ADVANCED_FACE ( 'NONE', ( #85, #113 ), #88, .T. ) ;
#168 =( NAMED_UNIT ( * ) PLANE_ANGLE_UNIT ( ) SI_UNIT ( $, .RADIAN. ) );
#169 = ORIENTED_EDGE ( 'NONE', *, *, #215, .F. ) ;
#170 = LOCAL_TIME ( 15, 54, 53.00000000000000000, #29 ) ;
#171 = CARTESIAN_POINT ( 'NONE',  ( 1.047444401652939809E-15, 2.803999999999997161, 0.2999999999999999889 ) ) ;
#172 = ORIENTED_EDGE ( 'NONE', *, *, #56, .T. ) ;
#173 = CC_DESIGN_DATE_AND_TIME_ASSIGNMENT ( #186, #14, ( #119 ) ) ;
#174 = DIRECTION ( 'NONE',  ( -3.491481338843133355E-15, 1.224646799147353207E-16, -1.000000000000000000 ) ) ;
#175 = CYLINDRICAL_SURFACE ( 'NONE', #232, 2.803999999999999382 ) ;
#176 = CARTESIAN_POINT ( 'NONE',  ( 2.182175836776958284E-13, -7.654042494670957804E-15, 62.50000000000000000 ) ) ;
#177 = CARTESIAN_POINT ( 'NONE',  ( -5.353340970262992932E-31, 1.877699247892646075E-32, -1.533257792532486518E-16 ) ) ;
#178 = ADVANCED_FACE ( 'NONE', ( #162 ), #164, .T. ) ;
#179 = PRODUCT ( '969452', '969452', '', ( #163 ) ) ;
#180 = AXIS2_PLACEMENT_3D ( 'NONE', #212, #52, #229 ) ;
#181 = AXIS2_PLACEMENT_3D ( 'NONE', #13, #238, #69 ) ;
#182 = DIRECTION ( 'NONE',  ( -3.491481338843133355E-15, 1.224646799147353207E-16, -1.000000000000000000 ) ) ;
#183 = DESIGN_CONTEXT ( 'detailed design', #161, 'design' ) ;
#184 = CARTESIAN_POINT ( 'NONE',  ( 7.681258945454893382E-14, 2.803999999999999382, 22.00000000000000000 ) ) ;
#185 = CARTESIAN_POINT ( 'NONE',  ( 7.681258945454893382E-14, -2.694222958124176809E-15, 22.00000000000000000 ) ) ;
#186 = DATE_AND_TIME ( #105, #170 ) ;
#187 =( LENGTH_UNIT ( ) NAMED_UNIT ( * ) SI_UNIT ( .MILLI., .METRE. ) );
#188 = ORIENTED_EDGE ( 'NONE', *, *, #5, .T. ) ;
#189 = PERSON_AND_ORGANIZATION ( #135, #74 ) ;
#190 = ORIENTED_EDGE ( 'NONE', *, *, #5, .F. ) ;
#191 = CIRCLE ( 'NONE', #160, 2.803999999999997161 ) ;
#192 = CARTESIAN_POINT ( 'NONE',  ( 7.865100606860567412E-14, 2.499999999999992450, 22.52654344550095189 ) ) ;
#193 = FACE_OUTER_BOUND ( 'NONE', #221, .T. ) ;
#194 = FACE_OUTER_BOUND ( 'NONE', #67, .T. ) ;
#195 = DIRECTION ( 'NONE',  ( -3.491481338843133355E-15, 1.224646799147353207E-16, -1.000000000000000000 ) ) ;
#196 = CARTESIAN_POINT ( 'NONE',  ( 7.681258945454893382E-14, 2.102663215291921980E-32, 22.00000000000000000 ) ) ;
#197 = ADVANCED_FACE ( 'NONE', ( #132 ), #21, .F. ) ;
#198 = APPROVAL_DATE_TIME ( #114, #211 ) ;
#199 = AXIS2_PLACEMENT_3D ( 'NONE', #185, #145, #93 ) ;
#200 = VERTEX_POINT ( 'NONE', #192 ) ;
#201 = APPLICATION_PROTOCOL_DEFINITION ( 'international standard', 'config_control_design', 1994, #161 ) ;
#202 = CARTESIAN_POINT ( 'NONE',  ( 7.865100606860567412E-14, -2.758705932638653108E-15, 22.52654344550095189 ) ) ;
#203 = EDGE_CURVE ( 'NONE', #44, #44, #191, .T. ) ;
#204 = ADVANCED_FACE ( 'NONE', ( #72, #210 ), #222, .T. ) ;
#205 = PERSON_AND_ORGANIZATION ( #135, #74 ) ;
#206 = PERSON_AND_ORGANIZATION ( #135, #74 ) ;
#207 = EDGE_LOOP ( 'NONE', ( #32 ) ) ;
#208 = DIRECTION ( 'NONE',  ( 4.121105444480537398E-31, 1.000000000000000000, 1.159988059007316907E-16 ) ) ;
#209 = DIRECTION ( 'NONE',  ( 4.275831445896958607E-31, 1.000000000000000000, 1.224646799147353207E-16 ) ) ;
#210 = FACE_BOUND ( 'NONE', #207, .T. ) ;
#211 = APPROVAL ( #70, 'UNSPECIFIED' ) ;
#212 = CARTESIAN_POINT ( 'NONE',  ( 0.0000000000000000000, 0.0000000000000000000, 0.0000000000000000000 ) ) ;
#213 = AXIS2_PLACEMENT_3D ( 'NONE', #202, #77, #153 ) ;
#214 = SHAPE_DEFINITION_REPRESENTATION ( #117, #27 ) ;
#215 = EDGE_CURVE ( 'NONE', #106, #106, #230, .T. ) ;
#216 = CIRCLE ( 'NONE', #103, 2.499999999999994671 ) ;
#217 = PERSON_AND_ORGANIZATION_ROLE ( 'creator' ) ;
#218 = DIRECTION ( 'NONE',  ( 3.491481338843133355E-15, -1.224646799147353207E-16, 1.000000000000000000 ) ) ;
#219 = CARTESIAN_POINT ( 'NONE',  ( 1.047444401652938823E-15, -3.673940397442055800E-17, 0.2999999999999996558 ) ) ;
#220 = APPROVAL_DATE_TIME ( #147, #123 ) ;
#221 = EDGE_LOOP ( 'NONE', ( #17 ) ) ;
#222 = CONICAL_SURFACE ( 'NONE', #26, 2.000000000000000000, 0.7853981633974479459 ) ;
#223 = PERSON_AND_ORGANIZATION ( #135, #74 ) ;
#224 = EDGE_LOOP ( 'NONE', ( #71 ) ) ;
#225 = CIRCLE ( 'NONE', #154, 2.804000000000001602 ) ;
#226 = DIRECTION ( 'NONE',  ( -3.491481338843133355E-15, 1.224646799147353207E-16, -1.000000000000000000 ) ) ;
#227 = APPROVAL_ROLE ( '' ) ;
#228 = DIRECTION ( 'NONE',  ( -3.491481338843133355E-15, 1.224646799147353207E-16, -1.000000000000000000 ) ) ;
#229 = DIRECTION ( 'NONE',  ( 4.275831445896959482E-31, 1.000000000000000000, 1.224646799147353454E-16 ) ) ;
#230 = CIRCLE ( 'NONE', #181, 2.000000000000000000 ) ;
#231 = DATE_AND_TIME ( #7, #102 ) ;
#232 = AXIS2_PLACEMENT_3D ( 'NONE', #43, #226, #23 ) ;
#233 = CARTESIAN_POINT ( 'NONE',  ( 2.182175836776958284E-13, 2.499999999999992450, 62.50000000000000000 ) ) ;
#234 = AXIS2_PLACEMENT_3D ( 'NONE', #177, #218, #138 ) ;
#235 = CIRCLE ( 'NONE', #82, 2.500000000000000000 ) ;
#236 = CARTESIAN_POINT ( 'NONE',  ( 2.199633243471174140E-13, 1.499759782661846113E-32, 63.00000000000000000 ) ) ;
#237 = APPROVAL_ROLE ( '' ) ;
#238 = DIRECTION ( 'NONE',  ( -3.491481338843133355E-15, 1.224646799147353207E-16, -1.000000000000000000 ) ) ;
#239 = COORDINATED_UNIVERSAL_TIME_OFFSET ( 1, 0, .AHEAD. ) ;
#240 = APPLICATION_PROTOCOL_DEFINITION ( 'international standard', 'config_control_design', 1994, #130 ) ;
#241 = AXIS2_PLACEMENT_3D ( 'NONE', #98, #76, #91 ) ;
#242 = MANIFOLD_SOLID_BREP ( 'Corps-Déplacer/Copier1[1]', #121 ) ;
#243 = APPROVAL_DATE_TIME ( #150, #16 ) ;
ENDSEC;
END-ISO-10303-21;
