ISO-10303-21;
HEADER;
FILE_DESCRIPTION (( 'STEP AP203' ),
    '1' );
FILE_NAME ('969450.step',
    '2021-11-30T14:36:53',
    ( '' ),
    ( '' ),
    'SwSTEP 2.0',
    'SolidWorks 2019',
    '' );
FILE_SCHEMA (( 'CONFIG_CONTROL_DESIGN' ));
ENDSEC;

DATA;
#1 = FACE_BOUND ( 'NONE', #104, .T. ) ;
#2 = CLOSED_SHELL ( 'NONE', ( #151, #179, #163, #67, #30 ) ) ;
#3 =( GEOMETRIC_REPRESENTATION_CONTEXT ( 3 ) GLOBAL_UNCERTAINTY_ASSIGNED_CONTEXT ( ( #230 ) ) GLOBAL_UNIT_ASSIGNED_CONTEXT ( ( #37, #178, #21 ) ) REPRESENTATION_CONTEXT ( 'NONE', 'WORKASPACE' ) );
#4 = PERSON_AND_ORGANIZATION_ROLE ( 'design_supplier' ) ;
#5 = APPROVAL_ROLE ( '' ) ;
#6 = ORIENTED_EDGE ( 'NONE', *, *, #41, .F. ) ;
#7 = CC_DESIGN_DATE_AND_TIME_ASSIGNMENT ( #143, #224, ( #233 ) ) ;
#8 = AXIS2_PLACEMENT_3D ( 'NONE', #150, #222, #89 ) ;
#9 = AXIS2_PLACEMENT_3D ( 'NONE', #240, #174, #72 ) ;
#10 = PRODUCT_DEFINITION_FORMATION_WITH_SPECIFIED_SOURCE ( 'ANY', '', #198, .NOT_KNOWN. ) ;
#11 = CARTESIAN_POINT ( 'NONE',  ( -5.139549397968146666E-31, 1.802711258759553742E-32, -1.472025452575118993E-16 ) ) ;
#12 = EDGE_CURVE ( 'NONE', #40, #40, #237, .T. ) ;
#13 = DIRECTION ( 'NONE',  ( -4.275831445896958607E-31, -1.000000000000000000, -1.224646799147353207E-16 ) ) ;
#14 = DIRECTION ( 'NONE',  ( 0.0000000000000000000, 1.000000000000000000, 0.0000000000000000000 ) ) ;
#15 = AXIS2_PLACEMENT_3D ( 'NONE', #91, #29, #205 ) ;
#16 = FACE_OUTER_BOUND ( 'NONE', #215, .T. ) ;
#17 = DIRECTION ( 'NONE',  ( 0.0000000000000000000, 1.000000000000000000, 0.0000000000000000000 ) ) ;
#18 = PERSON_AND_ORGANIZATION ( #102, #210 ) ;
#19 = DIRECTION ( 'NONE',  ( 3.491481338843133355E-15, -1.224646799147353207E-16, 1.000000000000000000 ) ) ;
#20 = APPROVAL ( #227, 'UNSPECIFIED' ) ;
#21 =( NAMED_UNIT ( * ) SI_UNIT ( $, .STERADIAN. ) SOLID_ANGLE_UNIT ( ) );
#22 = DIRECTION ( 'NONE',  ( 0.0000000000000000000, 0.0000000000000000000, 1.000000000000000000 ) ) ;
#23 = DATE_AND_TIME ( #195, #184 ) ;
#24 = AXIS2_PLACEMENT_3D ( 'NONE', #156, #236, #238 ) ;
#25 = ORIENTED_EDGE ( 'NONE', *, *, #154, .F. ) ;
#26 = AXIS2_PLACEMENT_3D ( 'NONE', #200, #32, #73 ) ;
#27 = CC_DESIGN_APPROVAL ( #94, ( #233 ) ) ;
#28 = ORIENTED_EDGE ( 'NONE', *, *, #83, .F. ) ;
#29 = DIRECTION ( 'NONE',  ( -3.491481338843133355E-15, 1.224646799147353207E-16, -1.000000000000000000 ) ) ;
#30 = ADVANCED_FACE ( 'NONE', ( #185 ), #155, .F. ) ;
#31 = PLANE ( 'NONE',  #79 ) ;
#32 = DIRECTION ( 'NONE',  ( -3.491481338843133355E-15, 1.224646799147353207E-16, -1.000000000000000000 ) ) ;
#33 = FACE_OUTER_BOUND ( 'NONE', #234, .T. ) ;
#34 = APPROVAL_PERSON_ORGANIZATION ( #100, #94, #160 ) ;
#35 = DIRECTION ( 'NONE',  ( -3.491481338843133355E-15, 1.224646799147353207E-16, -1.000000000000000000 ) ) ;
#36 = APPLICATION_PROTOCOL_DEFINITION ( 'international standard', 'config_control_design', 1994, #119 ) ;
#37 =( LENGTH_UNIT ( ) NAMED_UNIT ( * ) SI_UNIT ( .MILLI., .METRE. ) );
#38 = LOCAL_TIME ( 15, 36, 53.00000000000000000, #137 ) ;
#39 = VERTEX_POINT ( 'NONE', #138 ) ;
#40 = VERTEX_POINT ( 'NONE', #59 ) ;
#41 = EDGE_CURVE ( 'NONE', #81, #81, #47, .T. ) ;
#42 = CALENDAR_DATE ( 2021, 30, 11 ) ;
#43 = AXIS2_PLACEMENT_3D ( 'NONE', #206, #112, #17 ) ;
#44 = APPROVAL_PERSON_ORGANIZATION ( #162, #20, #5 ) ;
#45 = APPROVAL_DATE_TIME ( #78, #94 ) ;
#46 = EDGE_LOOP ( 'NONE', ( #168 ) ) ;
#47 = CIRCLE ( 'NONE', #124, 2.000000000000000000 ) ;
#48 = DESIGN_CONTEXT ( 'detailed design', #114, 'design' ) ;
#49 = ORIENTED_EDGE ( 'NONE', *, *, #154, .T. ) ;
#50 = EDGE_LOOP ( 'NONE', ( #25 ) ) ;
#51 = DIRECTION ( 'NONE',  ( -3.491481338843133355E-15, 1.224646799147353207E-16, -1.000000000000000000 ) ) ;
#52 = CC_DESIGN_SECURITY_CLASSIFICATION ( #233, ( #10 ) ) ;
#53 = DIRECTION ( 'NONE',  ( -3.491481338843133355E-15, 1.224646799147353207E-16, -1.000000000000000000 ) ) ;
#54 = DIRECTION ( 'NONE',  ( 4.275831445896959482E-31, 1.000000000000000000, 1.224646799147353207E-16 ) ) ;
#55 = CARTESIAN_POINT ( 'NONE',  ( 7.681258945454893382E-14, 2.027675226158828004E-32, 22.00000000000000000 ) ) ;
#56 = DIRECTION ( 'NONE',  ( -4.273513190208367761E-31, -1.000000000000000000, -1.202887025686581540E-16 ) ) ;
#57 = PERSON_AND_ORGANIZATION ( #102, #210 ) ;
#58 = SHAPE_DEFINITION_REPRESENTATION ( #142, #201 ) ;
#59 = CARTESIAN_POINT ( 'NONE',  ( -1.710569414459005214E-46, 2.404000000000000803, 0.0000000000000000000 ) ) ;
#60 = PERSON_AND_ORGANIZATION ( #102, #210 ) ;
#61 = CALENDAR_DATE ( 2021, 30, 11 ) ;
#62 = AXIS2_PLACEMENT_3D ( 'NONE', #189, #51, #93 ) ;
#63 = ORIENTED_EDGE ( 'NONE', *, *, #41, .T. ) ;
#64 = ADVANCED_FACE ( 'NONE', ( #129, #172 ), #204, .T. ) ;
#65 = EDGE_LOOP ( 'NONE', ( #149 ) ) ;
#66 = ORIENTED_EDGE ( 'NONE', *, *, #12, .F. ) ;
#67 = ADVANCED_FACE ( 'NONE', ( #90, #153 ), #135, .T. ) ;
#68 = ORIENTED_EDGE ( 'NONE', *, *, #12, .T. ) ;
#69 = DIRECTION ( 'NONE',  ( 3.491481338843133355E-15, -1.224646799147353207E-16, 1.000000000000000000 ) ) ;
#70 = DIRECTION ( 'NONE',  ( -4.275831445896958607E-31, -1.000000000000000000, -1.224646799147353207E-16 ) ) ;
#71 = FACE_OUTER_BOUND ( 'NONE', #87, .T. ) ;
#72 = DIRECTION ( 'NONE',  ( 0.0000000000000000000, 1.000000000000000000, 0.0000000000000000000 ) ) ;
#73 = DIRECTION ( 'NONE',  ( 4.275831445896958607E-31, 1.000000000000000000, 1.224646799147353207E-16 ) ) ;
#74 = CIRCLE ( 'NONE', #157, 2.704000000000000625 ) ;
#75 = ADVANCED_FACE ( 'NONE', ( #187 ), #170, .T. ) ;
#76 = APPROVAL_ROLE ( '' ) ;
#77 = PRODUCT_RELATED_PRODUCT_CATEGORY ( 'detail', '', ( #198 ) ) ;
#78 = DATE_AND_TIME ( #209, #203 ) ;
#79 = AXIS2_PLACEMENT_3D ( 'NONE', #55, #235, #70 ) ;
#80 = PERSON_AND_ORGANIZATION_ROLE ( 'design_owner' ) ;
#81 = VERTEX_POINT ( 'NONE', #98 ) ;
#82 = PERSON_AND_ORGANIZATION ( #102, #210 ) ;
#83 = EDGE_CURVE ( 'NONE', #39, #39, #74, .T. ) ;
#84 = AXIS2_PLACEMENT_3D ( 'NONE', #101, #22, #192 ) ;
#85 = EDGE_LOOP ( 'NONE', ( #6 ) ) ;
#86 = CC_DESIGN_PERSON_AND_ORGANIZATION_ASSIGNMENT ( #180, #80, ( #198 ) ) ;
#87 = EDGE_LOOP ( 'NONE', ( #68 ) ) ;
#88 = AXIS2_PLACEMENT_3D ( 'NONE', #134, #53, #111 ) ;
#89 = DIRECTION ( 'NONE',  ( 0.0000000000000000000, 1.000000000000000000, 0.0000000000000000000 ) ) ;
#90 = FACE_OUTER_BOUND ( 'NONE', #85, .T. ) ;
#91 = CARTESIAN_POINT ( 'NONE',  ( 2.199633243471174140E-13, -7.715274834628325378E-15, 63.00000000000000000 ) ) ;
#92 = FACE_OUTER_BOUND ( 'NONE', #46, .T. ) ;
#93 = DIRECTION ( 'NONE',  ( 4.275831445896958607E-31, 1.000000000000000000, 1.224646799147353207E-16 ) ) ;
#94 = APPROVAL ( #117, 'UNSPECIFIED' ) ;
#95 = COORDINATED_UNIVERSAL_TIME_OFFSET ( 1, 0, .AHEAD. ) ;
#96 = CARTESIAN_POINT ( 'NONE',  ( 7.681258945454893382E-14, 2.703999999999997961, 22.00000000000000000 ) ) ;
#97 = SECURITY_CLASSIFICATION_LEVEL ( 'unclassified' ) ;
#98 = CARTESIAN_POINT ( 'NONE',  ( 2.185667318115801607E-13, 1.999999999999992228, 62.60000000000000142 ) ) ;
#99 = MECHANICAL_CONTEXT ( 'NONE', #119, 'mechanical' ) ;
#100 = PERSON_AND_ORGANIZATION ( #102, #210 ) ;
#101 = CARTESIAN_POINT ( 'NONE',  ( 0.0000000000000000000, 0.0000000000000000000, 0.0000000000000000000 ) ) ;
#102 = PERSON ( 'UNSPECIFIED', 'UNSPECIFIED', 'UNSPECIFIED', ('UNSPECIFIED'), ('UNSPECIFIED'), ('UNSPECIFIED') ) ;
#103 = APPROVAL_PERSON_ORGANIZATION ( #18, #113, #76 ) ;
#104 = EDGE_LOOP ( 'NONE', ( #66 ) ) ;
#105 = ORIENTED_EDGE ( 'NONE', *, *, #183, .F. ) ;
#106 = CC_DESIGN_PERSON_AND_ORGANIZATION_ASSIGNMENT ( #60, #4, ( #10 ) ) ;
#107 = DIRECTION ( 'NONE',  ( -4.275831445896958607E-31, -1.000000000000000000, -1.224646799147353207E-16 ) ) ;
#108 = DIRECTION ( 'NONE',  ( -3.491481338843133355E-15, 1.224646799147353207E-16, -1.000000000000000000 ) ) ;
#109 = EDGE_CURVE ( 'NONE', #243, #243, #188, .T. ) ;
#110 = DIRECTION ( 'NONE',  ( -3.491481338843133355E-15, 1.224646799147353207E-16, -1.000000000000000000 ) ) ;
#111 = DIRECTION ( 'NONE',  ( 0.0000000000000000000, 1.000000000000000000, 0.0000000000000000000 ) ) ;
#112 = DIRECTION ( 'NONE',  ( -3.491481338843133355E-15, 1.224646799147353207E-16, -1.000000000000000000 ) ) ;
#113 = APPROVAL ( #242, 'UNSPECIFIED' ) ;
#114 = APPLICATION_CONTEXT ( 'configuration controlled 3d designs of mechanical parts and assemblies' ) ;
#115 = PERSON_AND_ORGANIZATION_ROLE ( 'creator' ) ;
#116 = CARTESIAN_POINT ( 'NONE',  ( 1.047444401652940401E-15, 2.703999999999997517, 0.3000000000000001554 ) ) ;
#117 = APPROVAL_STATUS ( 'not_yet_approved' ) ;
#118 = APPLICATION_PROTOCOL_DEFINITION ( 'international standard', 'config_control_design', 1994, #114 ) ;
#119 = APPLICATION_CONTEXT ( 'configuration controlled 3d designs of mechanical parts and assemblies' ) ;
#120 = CALENDAR_DATE ( 2021, 30, 11 ) ;
#121 = CONICAL_SURFACE ( 'NONE', #9, 1.999999999999995337, 0.5235987755982927094 ) ;
#122 = DATE_AND_TIME ( #42, #177 ) ;
#123 = PRODUCT_DEFINITION ( 'UNKNOWN', '', #10, #48 ) ;
#124 = AXIS2_PLACEMENT_3D ( 'NONE', #152, #110, #175 ) ;
#125 = ORIENTED_EDGE ( 'NONE', *, *, #109, .F. ) ;
#126 = EDGE_LOOP ( 'NONE', ( #105 ) ) ;
#127 = DIRECTION ( 'NONE',  ( -3.491481338843133355E-15, 1.224646799147353207E-16, -1.000000000000000000 ) ) ;
#128 = AXIS2_PLACEMENT_3D ( 'NONE', #218, #35, #54 ) ;
#129 = FACE_OUTER_BOUND ( 'NONE', #182, .T. ) ;
#130 = CC_DESIGN_PERSON_AND_ORGANIZATION_ASSIGNMENT ( #57, #115, ( #123 ) ) ;
#131 = CYLINDRICAL_SURFACE ( 'NONE', #166, 1.999999999999997335 ) ;
#132 = DIRECTION ( 'NONE',  ( 3.491481338843133355E-15, -1.224646799147353207E-16, 1.000000000000000000 ) ) ;
#133 = ADVANCED_FACE ( 'NONE', ( #71 ), #186, .F. ) ;
#134 = CARTESIAN_POINT ( 'NONE',  ( 7.681258945454893382E-14, -2.694222958124176809E-15, 22.00000000000000000 ) ) ;
#135 = CONICAL_SURFACE ( 'NONE', #15, 1.600000000000000089, 0.7853981633974512766 ) ;
#136 = FACE_OUTER_BOUND ( 'NONE', #213, .T. ) ;
#137 = COORDINATED_UNIVERSAL_TIME_OFFSET ( 1, 0, .AHEAD. ) ;
#138 = CARTESIAN_POINT ( 'NONE',  ( 7.681258945454893382E-14, 2.703999999999997961, 22.00000000000000000 ) ) ;
#139 = CARTESIAN_POINT ( 'NONE',  ( 2.199633243471174140E-13, 1.599999999999992317, 63.00000000000000000 ) ) ;
#140 = APPROVAL_DATE_TIME ( #122, #113 ) ;
#141 = CC_DESIGN_PERSON_AND_ORGANIZATION_ASSIGNMENT ( #211, #228, ( #10 ) ) ;
#142 = PRODUCT_DEFINITION_SHAPE ( 'NONE', 'NONE',  #123 ) ;
#143 = DATE_AND_TIME ( #61, #167 ) ;
#144 = AXIS2_PLACEMENT_3D ( 'NONE', #191, #19, #56 ) ;
#145 = MANIFOLD_SOLID_BREP ( 'Corps-Déplacer/Copier1[1]', #2 ) ;
#146 = ORIENTED_EDGE ( 'NONE', *, *, #173, .F. ) ;
#147 = CIRCLE ( 'NONE', #8, 1.600000000000000089 ) ;
#148 = EDGE_LOOP ( 'NONE', ( #28 ) ) ;
#149 = ORIENTED_EDGE ( 'NONE', *, *, #183, .T. ) ;
#150 = CARTESIAN_POINT ( 'NONE',  ( 2.199633243471174140E-13, -7.715274834628325378E-15, 63.00000000000000000 ) ) ;
#151 = ADVANCED_FACE ( 'NONE', ( #92 ), #31, .F. ) ;
#152 = CARTESIAN_POINT ( 'NONE',  ( 2.185667318115801607E-13, -7.666288962662431950E-15, 62.60000000000000142 ) ) ;
#153 = FACE_BOUND ( 'NONE', #165, .T. ) ;
#154 = EDGE_CURVE ( 'NONE', #223, #223, #147, .T. ) ;
#155 = PLANE ( 'NONE',  #62 ) ;
#156 = CARTESIAN_POINT ( 'NONE',  ( 1.047444401652939218E-15, -3.673940397442057649E-17, 0.2999999999999998224 ) ) ;
#157 = AXIS2_PLACEMENT_3D ( 'NONE', #171, #127, #14 ) ;
#158 = CC_DESIGN_APPROVAL ( #113, ( #10 ) ) ;
#159 = COORDINATED_UNIVERSAL_TIME_OFFSET ( 1, 0, .AHEAD. ) ;
#160 = APPROVAL_ROLE ( '' ) ;
#161 = VERTEX_POINT ( 'NONE', #96 ) ;
#162 = PERSON_AND_ORGANIZATION ( #102, #210 ) ;
#163 = ADVANCED_FACE ( 'NONE', ( #216, #33 ), #131, .T. ) ;
#164 = CIRCLE ( 'NONE', #43, 1.999999999999995337 ) ;
#165 = EDGE_LOOP ( 'NONE', ( #49 ) ) ;
#166 = AXIS2_PLACEMENT_3D ( 'NONE', #239, #108, #217 ) ;
#167 = LOCAL_TIME ( 15, 36, 53.00000000000000000, #212 ) ;
#168 = ORIENTED_EDGE ( 'NONE', *, *, #173, .T. ) ;
#169 = CC_DESIGN_DATE_AND_TIME_ASSIGNMENT ( #23, #207, ( #123 ) ) ;
#170 = PLANE ( 'NONE',  #232 ) ;
#171 = CARTESIAN_POINT ( 'NONE',  ( 7.681258945454893382E-14, -2.694222958124176809E-15, 22.00000000000000000 ) ) ;
#172 = FACE_OUTER_BOUND ( 'NONE', #231, .T. ) ;
#173 = EDGE_CURVE ( 'NONE', #161, #161, #196, .T. ) ;
#174 = DIRECTION ( 'NONE',  ( -3.491481338843133355E-15, 1.224646799147353207E-16, -1.000000000000000000 ) ) ;
#175 = DIRECTION ( 'NONE',  ( 0.0000000000000000000, 1.000000000000000000, 0.0000000000000000000 ) ) ;
#176 = APPROVAL_DATE_TIME ( #208, #20 ) ;
#177 = LOCAL_TIME ( 15, 36, 53.00000000000000000, #159 ) ;
#178 =( NAMED_UNIT ( * ) PLANE_ANGLE_UNIT ( ) SI_UNIT ( $, .RADIAN. ) );
#179 = ADVANCED_FACE ( 'NONE', ( #16, #190 ), #121, .T. ) ;
#180 = PERSON_AND_ORGANIZATION ( #102, #210 ) ;
#181 = PERSON_AND_ORGANIZATION_ROLE ( 'classification_officer' ) ;
#182 = EDGE_LOOP ( 'NONE', ( #125 ) ) ;
#183 = EDGE_CURVE ( 'NONE', #225, #225, #164, .T. ) ;
#184 = LOCAL_TIME ( 15, 36, 53.00000000000000000, #95 ) ;
#185 = FACE_OUTER_BOUND ( 'NONE', #50, .T. ) ;
#186 = PLANE ( 'NONE',  #229 ) ;
#187 = FACE_OUTER_BOUND ( 'NONE', #148, .T. ) ;
#188 = CIRCLE ( 'NONE', #24, 2.703999999999997517 ) ;
#189 = CARTESIAN_POINT ( 'NONE',  ( 2.199633243471174140E-13, 1.199807826129474591E-32, 63.00000000000000000 ) ) ;
#190 = FACE_BOUND ( 'NONE', #65, .T. ) ;
#191 = CARTESIAN_POINT ( 'NONE',  ( 1.047444401652939218E-15, -3.673940397442057649E-17, 0.2999999999999998224 ) ) ;
#192 = DIRECTION ( 'NONE',  ( 1.000000000000000000, 0.0000000000000000000, 0.0000000000000000000 ) ) ;
#193 = COORDINATED_UNIVERSAL_TIME_OFFSET ( 1, 0, .AHEAD. ) ;
#194 = CC_DESIGN_PERSON_AND_ORGANIZATION_ASSIGNMENT ( #82, #181, ( #233 ) ) ;
#195 = CALENDAR_DATE ( 2021, 30, 11 ) ;
#196 = CIRCLE ( 'NONE', #88, 2.704000000000000625 ) ;
#197 = ORIENTED_EDGE ( 'NONE', *, *, #109, .T. ) ;
#198 = PRODUCT ( '969450', '969450', '', ( #99 ) ) ;
#199 = ORIENTED_EDGE ( 'NONE', *, *, #83, .T. ) ;
#200 = CARTESIAN_POINT ( 'NONE',  ( -1.027909879593629333E-30, 3.605422517519107485E-32, -2.944050905150237987E-16 ) ) ;
#201 = ADVANCED_BREP_SHAPE_REPRESENTATION ( '969450', ( #145, #220, #84 ), #3 ) ;
#202 = CLOSED_SHELL ( 'NONE', ( #133, #221, #64, #75 ) ) ;
#203 = LOCAL_TIME ( 15, 36, 53.00000000000000000, #193 ) ;
#204 = CYLINDRICAL_SURFACE ( 'NONE', #128, 2.703999999999998849 ) ;
#205 = DIRECTION ( 'NONE',  ( 0.0000000000000000000, 1.000000000000000000, 0.0000000000000000000 ) ) ;
#206 = CARTESIAN_POINT ( 'NONE',  ( 8.106997529762769020E-14, -2.843551951736647180E-15, 23.21936376852851325 ) ) ;
#207 = DATE_TIME_ROLE ( 'creation_date' ) ;
#208 = DATE_AND_TIME ( #120, #38 ) ;
#209 = CALENDAR_DATE ( 2021, 30, 11 ) ;
#210 = ORGANIZATION ( 'UNSPECIFIED', 'UNSPECIFIED', '' ) ;
#211 = PERSON_AND_ORGANIZATION ( #102, #210 ) ;
#212 = COORDINATED_UNIVERSAL_TIME_OFFSET ( 1, 0, .AHEAD. ) ;
#213 = EDGE_LOOP ( 'NONE', ( #197 ) ) ;
#214 = CC_DESIGN_APPROVAL ( #20, ( #123 ) ) ;
#215 = EDGE_LOOP ( 'NONE', ( #146 ) ) ;
#216 = FACE_OUTER_BOUND ( 'NONE', #126, .T. ) ;
#217 = DIRECTION ( 'NONE',  ( 4.275831445896959482E-31, 1.000000000000000000, 1.224646799147353454E-16 ) ) ;
#218 = CARTESIAN_POINT ( 'NONE',  ( 0.0000000000000000000, 0.0000000000000000000, 0.0000000000000000000 ) ) ;
#219 = CARTESIAN_POINT ( 'NONE',  ( 7.681258945454893382E-14, 2.027675226158828004E-32, 22.00000000000000000 ) ) ;
#220 = MANIFOLD_SOLID_BREP ( 'Corps-Déplacer/Copier1[2]', #202 ) ;
#221 = ADVANCED_FACE ( 'NONE', ( #1, #136 ), #241, .T. ) ;
#222 = DIRECTION ( 'NONE',  ( -3.491481338843133355E-15, 1.224646799147353207E-16, -1.000000000000000000 ) ) ;
#223 = VERTEX_POINT ( 'NONE', #139 ) ;
#224 = DATE_TIME_ROLE ( 'classification_date' ) ;
#225 = VERTEX_POINT ( 'NONE', #226 ) ;
#226 = CARTESIAN_POINT ( 'NONE',  ( 8.106997529762769020E-14, 1.999999999999992228, 23.21936376852851325 ) ) ;
#227 = APPROVAL_STATUS ( 'not_yet_approved' ) ;
#228 = PERSON_AND_ORGANIZATION_ROLE ( 'creator' ) ;
#229 = AXIS2_PLACEMENT_3D ( 'NONE', #11, #132, #13 ) ;
#230 = UNCERTAINTY_MEASURE_WITH_UNIT (LENGTH_MEASURE( 1.000000000000000082E-05 ), #37, 'distance_accuracy_value', 'NONE');
#231 = EDGE_LOOP ( 'NONE', ( #199 ) ) ;
#232 = AXIS2_PLACEMENT_3D ( 'NONE', #219, #69, #107 ) ;
#233 = SECURITY_CLASSIFICATION ( '', '', #97 ) ;
#234 = EDGE_LOOP ( 'NONE', ( #63 ) ) ;
#235 = DIRECTION ( 'NONE',  ( 3.491481338843133355E-15, -1.224646799147353207E-16, 1.000000000000000000 ) ) ;
#236 = DIRECTION ( 'NONE',  ( -3.491481338843133355E-15, 1.224646799147353207E-16, -1.000000000000000000 ) ) ;
#237 = CIRCLE ( 'NONE', #26, 2.404000000000000803 ) ;
#238 = DIRECTION ( 'NONE',  ( 4.273513190208367761E-31, 1.000000000000000000, 1.202887025686581540E-16 ) ) ;
#239 = CARTESIAN_POINT ( 'NONE',  ( 0.0000000000000000000, 0.0000000000000000000, 0.0000000000000000000 ) ) ;
#240 = CARTESIAN_POINT ( 'NONE',  ( 8.106997529762769020E-14, -2.843551951736647180E-15, 23.21936376852851325 ) ) ;
#241 = CONICAL_SURFACE ( 'NONE', #144, 2.703999999999997517, 0.7853981633974428389 ) ;
#242 = APPROVAL_STATUS ( 'not_yet_approved' ) ;
#243 = VERTEX_POINT ( 'NONE', #116 ) ;
ENDSEC;
END-ISO-10303-21;
