ISO-10303-21;
HEADER;
FILE_DESCRIPTION (( 'STEP AP203' ),
    '1' );
FILE_NAME ('969449.step',
    '2021-11-30T14:36:52',
    ( '' ),
    ( '' ),
    'SwSTEP 2.0',
    'SolidWorks 2019',
    '' );
FILE_SCHEMA (( 'CONFIG_CONTROL_DESIGN' ));
ENDSEC;

DATA;
#1 = APPROVAL ( #214, 'UNSPECIFIED' ) ;
#2 = APPROVAL_PERSON_ORGANIZATION ( #228, #1, #44 ) ;
#3 = PERSON_AND_ORGANIZATION_ROLE ( 'design_owner' ) ;
#4 = DATE_AND_TIME ( #134, #217 ) ;
#5 = PRODUCT_RELATED_PRODUCT_CATEGORY ( 'detail', '', ( #137 ) ) ;
#6 = EDGE_LOOP ( 'NONE', ( #158 ) ) ;
#7 = EDGE_LOOP ( 'NONE', ( #48 ) ) ;
#8 = CC_DESIGN_DATE_AND_TIME_ASSIGNMENT ( #242, #113, ( #146 ) ) ;
#9 = ADVANCED_BREP_SHAPE_REPRESENTATION ( '969449', ( #86, #169, #232 ), #81 ) ;
#10 = AXIS2_PLACEMENT_3D ( 'NONE', #85, #73, #170 ) ;
#11 = DIRECTION ( 'NONE',  ( 0.0000000000000000000, 1.000000000000000000, 0.0000000000000000000 ) ) ;
#12 = CARTESIAN_POINT ( 'NONE',  ( -1.006530722364144619E-30, 3.530434528386015152E-32, -2.882818565192870708E-16 ) ) ;
#13 = FACE_BOUND ( 'NONE', #6, .T. ) ;
#14 = CLOSED_SHELL ( 'NONE', ( #180, #175, #37, #166 ) ) ;
#15 = DIRECTION ( 'NONE',  ( 3.491481338843133355E-15, -1.224646799147353207E-16, 1.000000000000000000 ) ) ;
#16 = FACE_OUTER_BOUND ( 'NONE', #7, .T. ) ;
#17 = CARTESIAN_POINT ( 'NONE',  ( 1.047444401652940007E-15, 2.653999999999997694, 0.3000000000000000444 ) ) ;
#18 = AXIS2_PLACEMENT_3D ( 'NONE', #123, #15, #204 ) ;
#19 = LOCAL_TIME ( 15, 36, 52.00000000000000000, #98 ) ;
#20 = APPLICATION_PROTOCOL_DEFINITION ( 'international standard', 'config_control_design', 1994, #198 ) ;
#21 = VERTEX_POINT ( 'NONE', #243 ) ;
#22 = VERTEX_POINT ( 'NONE', #17 ) ;
#23 = LOCAL_TIME ( 15, 36, 52.00000000000000000, #94 ) ;
#24 = ORIENTED_EDGE ( 'NONE', *, *, #34, .F. ) ;
#25 = ADVANCED_FACE ( 'NONE', ( #148 ), #124, .F. ) ;
#26 = AXIS2_PLACEMENT_3D ( 'NONE', #161, #71, #151 ) ;
#27 = UNCERTAINTY_MEASURE_WITH_UNIT (LENGTH_MEASURE( 1.000000000000000082E-05 ), #93, 'distance_accuracy_value', 'NONE');
#28 = EDGE_CURVE ( 'NONE', #95, #95, #131, .T. ) ;
#29 = DIRECTION ( 'NONE',  ( -3.491481338843133355E-15, 1.224646799147353207E-16, -1.000000000000000000 ) ) ;
#30 = DIRECTION ( 'NONE',  ( -4.354023988818170387E-31, -1.000000000000000000, -1.225548800850232050E-16 ) ) ;
#31 = CYLINDRICAL_SURFACE ( 'NONE', #105, 2.653999999999999027 ) ;
#32 = CARTESIAN_POINT ( 'NONE',  ( 8.076760414399993977E-14, -2.832946199349397921E-15, 23.13276122815006985 ) ) ;
#33 = CARTESIAN_POINT ( 'NONE',  ( 1.047444401652939021E-15, -3.673940397442056417E-17, 0.2999999999999997113 ) ) ;
#34 = EDGE_CURVE ( 'NONE', #22, #22, #209, .T. ) ;
#35 = CARTESIAN_POINT ( 'NONE',  ( 7.681258945454893382E-14, 2.653999999999998582, 22.00000000000000000 ) ) ;
#36 = APPROVAL_ROLE ( '' ) ;
#37 = ADVANCED_FACE ( 'NONE', ( #223, #184 ), #31, .T. ) ;
#38 = CC_DESIGN_APPROVAL ( #47, ( #64 ) ) ;
#39 = APPROVAL_STATUS ( 'not_yet_approved' ) ;
#40 = CARTESIAN_POINT ( 'NONE',  ( 0.0000000000000000000, 0.0000000000000000000, 0.0000000000000000000 ) ) ;
#41 = DIRECTION ( 'NONE',  ( 0.0000000000000000000, 1.000000000000000000, 0.0000000000000000000 ) ) ;
#42 = PERSON_AND_ORGANIZATION ( #157, #139 ) ;
#43 = APPROVAL_PERSON_ORGANIZATION ( #193, #47, #192 ) ;
#44 = APPROVAL_ROLE ( '' ) ;
#45 = EDGE_LOOP ( 'NONE', ( #82 ) ) ;
#46 = AXIS2_PLACEMENT_3D ( 'NONE', #12, #182, #239 ) ;
#47 = APPROVAL ( #39, 'UNSPECIFIED' ) ;
#48 = ORIENTED_EDGE ( 'NONE', *, *, #28, .F. ) ;
#49 = CC_DESIGN_APPROVAL ( #78, ( #146 ) ) ;
#50 = DESIGN_CONTEXT ( 'detailed design', #198, 'design' ) ;
#51 = DIRECTION ( 'NONE',  ( 0.0000000000000000000, 1.000000000000000000, 0.0000000000000000000 ) ) ;
#52 = DIRECTION ( 'NONE',  ( -3.491481338843133355E-15, 1.224646799147353207E-16, -1.000000000000000000 ) ) ;
#53 = CARTESIAN_POINT ( 'NONE',  ( 2.199633243471174140E-13, 1.199807826129474591E-32, 63.00000000000000000 ) ) ;
#54 = EDGE_CURVE ( 'NONE', #189, #189, #63, .T. ) ;
#55 = DIRECTION ( 'NONE',  ( -3.491481338843133355E-15, 1.224646799147353207E-16, -1.000000000000000000 ) ) ;
#56 = VERTEX_POINT ( 'NONE', #35 ) ;
#57 = CARTESIAN_POINT ( 'NONE',  ( 7.681258945454893382E-14, -2.694222958124176809E-15, 22.00000000000000000 ) ) ;
#58 =( NAMED_UNIT ( * ) SI_UNIT ( $, .STERADIAN. ) SOLID_ANGLE_UNIT ( ) );
#59 = PERSON_AND_ORGANIZATION ( #157, #139 ) ;
#60 = PRODUCT_DEFINITION_SHAPE ( 'NONE', 'NONE',  #146 ) ;
#61 = CARTESIAN_POINT ( 'NONE',  ( 7.681258945454893382E-14, 2.653999999999998582, 22.00000000000000000 ) ) ;
#62 = DATE_AND_TIME ( #135, #181 ) ;
#63 = CIRCLE ( 'NONE', #46, 2.354000000000000981 ) ;
#64 = PRODUCT_DEFINITION_FORMATION_WITH_SPECIFIED_SOURCE ( 'ANY', '', #137, .NOT_KNOWN. ) ;
#65 = DIRECTION ( 'NONE',  ( -3.491481338843133355E-15, 1.224646799147353207E-16, -1.000000000000000000 ) ) ;
#66 = DIRECTION ( 'NONE',  ( -4.275831445896958607E-31, -1.000000000000000000, -1.224646799147353207E-16 ) ) ;
#67 = AXIS2_PLACEMENT_3D ( 'NONE', #84, #65, #107 ) ;
#68 = CARTESIAN_POINT ( 'NONE',  ( 2.199633243471174140E-13, -7.715274834628325378E-15, 63.00000000000000000 ) ) ;
#69 = ADVANCED_FACE ( 'NONE', ( #200, #238 ), #163, .T. ) ;
#70 = FACE_BOUND ( 'NONE', #234, .T. ) ;
#71 = DIRECTION ( 'NONE',  ( 3.491481338843133355E-15, -1.224646799147353207E-16, 1.000000000000000000 ) ) ;
#72 = AXIS2_PLACEMENT_3D ( 'NONE', #110, #237, #51 ) ;
#73 = DIRECTION ( 'NONE',  ( -3.491481338843133355E-15, 1.224646799147353207E-16, -1.000000000000000000 ) ) ;
#74 =( NAMED_UNIT ( * ) PLANE_ANGLE_UNIT ( ) SI_UNIT ( $, .RADIAN. ) );
#75 = CONICAL_SURFACE ( 'NONE', #76, 2.653999999999997694, 0.7853981633974423948 ) ;
#76 = AXIS2_PLACEMENT_3D ( 'NONE', #33, #90, #30 ) ;
#77 = PERSON_AND_ORGANIZATION_ROLE ( 'creator' ) ;
#78 = APPROVAL ( #130, 'UNSPECIFIED' ) ;
#79 = ORIENTED_EDGE ( 'NONE', *, *, #28, .T. ) ;
#80 = COORDINATED_UNIVERSAL_TIME_OFFSET ( 1, 0, .AHEAD. ) ;
#81 =( GEOMETRIC_REPRESENTATION_CONTEXT ( 3 ) GLOBAL_UNCERTAINTY_ASSIGNED_CONTEXT ( ( #27 ) ) GLOBAL_UNIT_ASSIGNED_CONTEXT ( ( #93, #74, #58 ) ) REPRESENTATION_CONTEXT ( 'NONE', 'WORKASPACE' ) );
#82 = ORIENTED_EDGE ( 'NONE', *, *, #206, .F. ) ;
#83 = EDGE_LOOP ( 'NONE', ( #160 ) ) ;
#84 = CARTESIAN_POINT ( 'NONE',  ( 0.0000000000000000000, 0.0000000000000000000, 0.0000000000000000000 ) ) ;
#85 = CARTESIAN_POINT ( 'NONE',  ( 2.185667318115801607E-13, -7.666288962662431950E-15, 62.60000000000000142 ) ) ;
#86 = MANIFOLD_SOLID_BREP ( 'Corps-Déplacer/Copier1[1]', #120 ) ;
#87 = CARTESIAN_POINT ( 'NONE',  ( 8.076760414399993977E-14, -2.832946199349397921E-15, 23.13276122815006985 ) ) ;
#88 = CIRCLE ( 'NONE', #97, 2.654000000000000803 ) ;
#89 = CARTESIAN_POINT ( 'NONE',  ( 1.047444401652939021E-15, -3.673940397442056417E-17, 0.2999999999999997113 ) ) ;
#90 = DIRECTION ( 'NONE',  ( 3.491481338843133355E-15, -1.224646799147353207E-16, 1.000000000000000000 ) ) ;
#91 = AXIS2_PLACEMENT_3D ( 'NONE', #208, #219, #66 ) ;
#92 = CARTESIAN_POINT ( 'NONE',  ( 2.185667318115801607E-13, 1.999999999999992228, 62.60000000000000142 ) ) ;
#93 =( LENGTH_UNIT ( ) NAMED_UNIT ( * ) SI_UNIT ( .MILLI., .METRE. ) );
#94 = COORDINATED_UNIVERSAL_TIME_OFFSET ( 1, 0, .AHEAD. ) ;
#95 = VERTEX_POINT ( 'NONE', #61 ) ;
#96 = ADVANCED_FACE ( 'NONE', ( #220, #13 ), #201, .T. ) ;
#97 = AXIS2_PLACEMENT_3D ( 'NONE', #57, #211, #41 ) ;
#98 = COORDINATED_UNIVERSAL_TIME_OFFSET ( 1, 0, .AHEAD. ) ;
#99 = SHAPE_DEFINITION_REPRESENTATION ( #60, #9 ) ;
#100 = ORIENTED_EDGE ( 'NONE', *, *, #202, .F. ) ;
#101 = PERSON_AND_ORGANIZATION_ROLE ( 'classification_officer' ) ;
#102 = EDGE_CURVE ( 'NONE', #152, #152, #241, .T. ) ;
#103 = EDGE_LOOP ( 'NONE', ( #140 ) ) ;
#104 = ORIENTED_EDGE ( 'NONE', *, *, #102, .T. ) ;
#105 = AXIS2_PLACEMENT_3D ( 'NONE', #162, #165, #149 ) ;
#106 = CYLINDRICAL_SURFACE ( 'NONE', #67, 1.999999999999997335 ) ;
#107 = DIRECTION ( 'NONE',  ( 4.275831445896959482E-31, 1.000000000000000000, 1.224646799147353454E-16 ) ) ;
#108 = CARTESIAN_POINT ( 'NONE',  ( 2.199633243471174140E-13, -7.715274834628325378E-15, 63.00000000000000000 ) ) ;
#109 = APPROVAL_PERSON_ORGANIZATION ( #59, #78, #36 ) ;
#110 = CARTESIAN_POINT ( 'NONE',  ( 7.681258945454893382E-14, -2.694222958124176809E-15, 22.00000000000000000 ) ) ;
#111 = COORDINATED_UNIVERSAL_TIME_OFFSET ( 1, 0, .AHEAD. ) ;
#112 = ADVANCED_FACE ( 'NONE', ( #188 ), #125, .F. ) ;
#113 = DATE_TIME_ROLE ( 'creation_date' ) ;
#114 = DATE_TIME_ROLE ( 'classification_date' ) ;
#115 = CALENDAR_DATE ( 2021, 30, 11 ) ;
#116 = DIRECTION ( 'NONE',  ( 1.000000000000000000, 0.0000000000000000000, 0.0000000000000000000 ) ) ;
#117 = PERSON_AND_ORGANIZATION_ROLE ( 'creator' ) ;
#118 = DATE_AND_TIME ( #153, #23 ) ;
#119 = ORIENTED_EDGE ( 'NONE', *, *, #206, .T. ) ;
#120 = CLOSED_SHELL ( 'NONE', ( #112, #69, #187, #96, #25 ) ) ;
#121 = FACE_OUTER_BOUND ( 'NONE', #215, .T. ) ;
#122 = AXIS2_PLACEMENT_3D ( 'NONE', #108, #55, #11 ) ;
#123 = CARTESIAN_POINT ( 'NONE',  ( 7.681258945454893382E-14, 1.990181231592281838E-32, 22.00000000000000000 ) ) ;
#124 = PLANE ( 'NONE',  #154 ) ;
#125 = PLANE ( 'NONE',  #91 ) ;
#126 = DIRECTION ( 'NONE',  ( -3.491481338843133355E-15, 1.224646799147353207E-16, -1.000000000000000000 ) ) ;
#127 = LOCAL_TIME ( 15, 36, 52.00000000000000000, #111 ) ;
#128 = CALENDAR_DATE ( 2021, 30, 11 ) ;
#129 = VERTEX_POINT ( 'NONE', #92 ) ;
#130 = APPROVAL_STATUS ( 'not_yet_approved' ) ;
#131 = CIRCLE ( 'NONE', #72, 2.654000000000000803 ) ;
#132 = CC_DESIGN_PERSON_AND_ORGANIZATION_ASSIGNMENT ( #173, #77, ( #146 ) ) ;
#133 = APPLICATION_PROTOCOL_DEFINITION ( 'international standard', 'config_control_design', 1994, #236 ) ;
#134 = CALENDAR_DATE ( 2021, 30, 11 ) ;
#135 = CALENDAR_DATE ( 2021, 30, 11 ) ;
#136 = AXIS2_PLACEMENT_3D ( 'NONE', #32, #221, #240 ) ;
#137 = PRODUCT ( '969449', '969449', '', ( #194 ) ) ;
#138 = SECURITY_CLASSIFICATION_LEVEL ( 'unclassified' ) ;
#139 = ORGANIZATION ( 'UNSPECIFIED', 'UNSPECIFIED', '' ) ;
#140 = ORIENTED_EDGE ( 'NONE', *, *, #34, .T. ) ;
#141 = ORIENTED_EDGE ( 'NONE', *, *, #102, .F. ) ;
#142 = CC_DESIGN_PERSON_AND_ORGANIZATION_ASSIGNMENT ( #229, #177, ( #64 ) ) ;
#143 = CC_DESIGN_APPROVAL ( #1, ( #203 ) ) ;
#144 = EDGE_LOOP ( 'NONE', ( #79 ) ) ;
#145 = DIRECTION ( 'NONE',  ( 4.275831445896958607E-31, 1.000000000000000000, 1.224646799147353207E-16 ) ) ;
#146 = PRODUCT_DEFINITION ( 'UNKNOWN', '', #64, #50 ) ;
#147 = DIRECTION ( 'NONE',  ( 4.354023988818170387E-31, 1.000000000000000000, 1.225548800850232050E-16 ) ) ;
#148 = FACE_OUTER_BOUND ( 'NONE', #178, .T. ) ;
#149 = DIRECTION ( 'NONE',  ( 4.275831445896958607E-31, 1.000000000000000000, 1.224646799147353207E-16 ) ) ;
#150 = EDGE_CURVE ( 'NONE', #21, #21, #230, .T. ) ;
#151 = DIRECTION ( 'NONE',  ( -4.275831445896958607E-31, -1.000000000000000000, -1.224646799147353207E-16 ) ) ;
#152 = VERTEX_POINT ( 'NONE', #224 ) ;
#153 = CALENDAR_DATE ( 2021, 30, 11 ) ;
#154 = AXIS2_PLACEMENT_3D ( 'NONE', #53, #126, #145 ) ;
#155 = PERSON_AND_ORGANIZATION ( #157, #139 ) ;
#156 = COORDINATED_UNIVERSAL_TIME_OFFSET ( 1, 0, .AHEAD. ) ;
#157 = PERSON ( 'UNSPECIFIED', 'UNSPECIFIED', 'UNSPECIFIED', ('UNSPECIFIED'), ('UNSPECIFIED'), ('UNSPECIFIED') ) ;
#158 = ORIENTED_EDGE ( 'NONE', *, *, #150, .T. ) ;
#159 = EDGE_LOOP ( 'NONE', ( #119 ) ) ;
#160 = ORIENTED_EDGE ( 'NONE', *, *, #54, .T. ) ;
#161 = CARTESIAN_POINT ( 'NONE',  ( -5.032653611820723095E-31, 1.765217264193007576E-32, -1.441409282596435354E-16 ) ) ;
#162 = CARTESIAN_POINT ( 'NONE',  ( 0.0000000000000000000, 0.0000000000000000000, 0.0000000000000000000 ) ) ;
#163 = CONICAL_SURFACE ( 'NONE', #212, 1.999999999999995337, 0.5235987755982929315 ) ;
#164 = DIRECTION ( 'NONE',  ( 0.0000000000000000000, 1.000000000000000000, 0.0000000000000000000 ) ) ;
#165 = DIRECTION ( 'NONE',  ( -3.491481338843133355E-15, 1.224646799147353207E-16, -1.000000000000000000 ) ) ;
#166 = ADVANCED_FACE ( 'NONE', ( #16 ), #186, .T. ) ;
#167 = FACE_OUTER_BOUND ( 'NONE', #83, .T. ) ;
#168 = DATE_AND_TIME ( #128, #127 ) ;
#169 = MANIFOLD_SOLID_BREP ( 'Corps-Déplacer/Copier1[2]', #14 ) ;
#170 = DIRECTION ( 'NONE',  ( 0.0000000000000000000, 1.000000000000000000, 0.0000000000000000000 ) ) ;
#171 = AXIS2_PLACEMENT_3D ( 'NONE', #68, #52, #164 ) ;
#172 = APPROVAL_DATE_TIME ( #118, #1 ) ;
#173 = PERSON_AND_ORGANIZATION ( #157, #139 ) ;
#174 = PERSON_AND_ORGANIZATION ( #157, #139 ) ;
#175 = ADVANCED_FACE ( 'NONE', ( #70, #222 ), #75, .T. ) ;
#176 = EDGE_LOOP ( 'NONE', ( #24 ) ) ;
#177 = PERSON_AND_ORGANIZATION_ROLE ( 'design_supplier' ) ;
#178 = EDGE_LOOP ( 'NONE', ( #218 ) ) ;
#179 = CC_DESIGN_SECURITY_CLASSIFICATION ( #203, ( #64 ) ) ;
#180 = ADVANCED_FACE ( 'NONE', ( #167 ), #205, .F. ) ;
#181 = LOCAL_TIME ( 15, 36, 52.00000000000000000, #156 ) ;
#182 = DIRECTION ( 'NONE',  ( -3.491481338843133355E-15, 1.224646799147353207E-16, -1.000000000000000000 ) ) ;
#183 = DIRECTION ( 'NONE',  ( -3.491481338843133355E-15, 1.224646799147353207E-16, -1.000000000000000000 ) ) ;
#184 = FACE_OUTER_BOUND ( 'NONE', #144, .T. ) ;
#185 = AXIS2_PLACEMENT_3D ( 'NONE', #89, #183, #147 ) ;
#186 = PLANE ( 'NONE',  #18 ) ;
#187 = ADVANCED_FACE ( 'NONE', ( #235, #121 ), #106, .T. ) ;
#188 = FACE_OUTER_BOUND ( 'NONE', #159, .T. ) ;
#189 = VERTEX_POINT ( 'NONE', #191 ) ;
#190 = CC_DESIGN_PERSON_AND_ORGANIZATION_ASSIGNMENT ( #155, #3, ( #137 ) ) ;
#191 = CARTESIAN_POINT ( 'NONE',  ( 0.0000000000000000000, 2.354000000000000981, 0.0000000000000000000 ) ) ;
#192 = APPROVAL_ROLE ( '' ) ;
#193 = PERSON_AND_ORGANIZATION ( #157, #139 ) ;
#194 = MECHANICAL_CONTEXT ( 'NONE', #236, 'mechanical' ) ;
#195 = EDGE_LOOP ( 'NONE', ( #100 ) ) ;
#196 = EDGE_LOOP ( 'NONE', ( #141 ) ) ;
#197 = CC_DESIGN_PERSON_AND_ORGANIZATION_ASSIGNMENT ( #42, #117, ( #64 ) ) ;
#198 = APPLICATION_CONTEXT ( 'configuration controlled 3d designs of mechanical parts and assemblies' ) ;
#199 = ORIENTED_EDGE ( 'NONE', *, *, #202, .T. ) ;
#200 = FACE_OUTER_BOUND ( 'NONE', #45, .T. ) ;
#201 = CONICAL_SURFACE ( 'NONE', #171, 1.600000000000000089, 0.7853981633974512766 ) ;
#202 = EDGE_CURVE ( 'NONE', #129, #129, #227, .T. ) ;
#203 = SECURITY_CLASSIFICATION ( '', '', #138 ) ;
#204 = DIRECTION ( 'NONE',  ( -4.275831445896958607E-31, -1.000000000000000000, -1.224646799147353207E-16 ) ) ;
#205 = PLANE ( 'NONE',  #26 ) ;
#206 = EDGE_CURVE ( 'NONE', #56, #56, #88, .T. ) ;
#207 = DIRECTION ( 'NONE',  ( 0.0000000000000000000, 1.000000000000000000, 0.0000000000000000000 ) ) ;
#208 = CARTESIAN_POINT ( 'NONE',  ( 7.681258945454893382E-14, 1.990181231592281838E-32, 22.00000000000000000 ) ) ;
#209 = CIRCLE ( 'NONE', #185, 2.653999999999997694 ) ;
#210 = APPROVAL_DATE_TIME ( #168, #78 ) ;
#211 = DIRECTION ( 'NONE',  ( -3.491481338843133355E-15, 1.224646799147353207E-16, -1.000000000000000000 ) ) ;
#212 = AXIS2_PLACEMENT_3D ( 'NONE', #87, #29, #207 ) ;
#213 = APPROVAL_DATE_TIME ( #62, #47 ) ;
#214 = APPROVAL_STATUS ( 'not_yet_approved' ) ;
#215 = EDGE_LOOP ( 'NONE', ( #199 ) ) ;
#216 = EDGE_LOOP ( 'NONE', ( #104 ) ) ;
#217 = LOCAL_TIME ( 15, 36, 52.00000000000000000, #80 ) ;
#218 = ORIENTED_EDGE ( 'NONE', *, *, #150, .F. ) ;
#219 = DIRECTION ( 'NONE',  ( 3.491481338843133355E-15, -1.224646799147353207E-16, 1.000000000000000000 ) ) ;
#220 = FACE_OUTER_BOUND ( 'NONE', #195, .T. ) ;
#221 = DIRECTION ( 'NONE',  ( -3.491481338843133355E-15, 1.224646799147353207E-16, -1.000000000000000000 ) ) ;
#222 = FACE_OUTER_BOUND ( 'NONE', #103, .T. ) ;
#223 = FACE_OUTER_BOUND ( 'NONE', #176, .T. ) ;
#224 = CARTESIAN_POINT ( 'NONE',  ( 8.076760414399993977E-14, 1.999999999999992228, 23.13276122815006985 ) ) ;
#225 = CC_DESIGN_DATE_AND_TIME_ASSIGNMENT ( #4, #114, ( #203 ) ) ;
#226 = DIRECTION ( 'NONE',  ( 0.0000000000000000000, 0.0000000000000000000, 1.000000000000000000 ) ) ;
#227 = CIRCLE ( 'NONE', #10, 2.000000000000000000 ) ;
#228 = PERSON_AND_ORGANIZATION ( #157, #139 ) ;
#229 = PERSON_AND_ORGANIZATION ( #157, #139 ) ;
#230 = CIRCLE ( 'NONE', #122, 1.600000000000000089 ) ;
#231 = ORIENTED_EDGE ( 'NONE', *, *, #54, .F. ) ;
#232 = AXIS2_PLACEMENT_3D ( 'NONE', #40, #226, #116 ) ;
#233 = CC_DESIGN_PERSON_AND_ORGANIZATION_ASSIGNMENT ( #174, #101, ( #203 ) ) ;
#234 = EDGE_LOOP ( 'NONE', ( #231 ) ) ;
#235 = FACE_OUTER_BOUND ( 'NONE', #196, .T. ) ;
#236 = APPLICATION_CONTEXT ( 'configuration controlled 3d designs of mechanical parts and assemblies' ) ;
#237 = DIRECTION ( 'NONE',  ( -3.491481338843133355E-15, 1.224646799147353207E-16, -1.000000000000000000 ) ) ;
#238 = FACE_BOUND ( 'NONE', #216, .T. ) ;
#239 = DIRECTION ( 'NONE',  ( 4.275831445896959482E-31, 1.000000000000000000, 1.224646799147353207E-16 ) ) ;
#240 = DIRECTION ( 'NONE',  ( 0.0000000000000000000, 1.000000000000000000, 0.0000000000000000000 ) ) ;
#241 = CIRCLE ( 'NONE', #136, 1.999999999999995337 ) ;
#242 = DATE_AND_TIME ( #115, #19 ) ;
#243 = CARTESIAN_POINT ( 'NONE',  ( 2.199633243471174140E-13, 1.599999999999992317, 63.00000000000000000 ) ) ;
ENDSEC;
END-ISO-10303-21;
