ISO-10303-21;
HEADER;
FILE_DESCRIPTION (( 'STEP AP203' ),
    '1' );
FILE_NAME ('969448.step',
    '2021-11-30T14:36:52',
    ( '' ),
    ( '' ),
    'SwSTEP 2.0',
    'SolidWorks 2019',
    '' );
FILE_SCHEMA (( 'CONFIG_CONTROL_DESIGN' ));
ENDSEC;

DATA;
#1 = PRODUCT_DEFINITION_FORMATION_WITH_SPECIFIED_SOURCE ( 'ANY', '', #16, .NOT_KNOWN. ) ;
#2 = COORDINATED_UNIVERSAL_TIME_OFFSET ( 1, 0, .AHEAD. ) ;
#3 = APPROVAL_PERSON_ORGANIZATION ( #76, #109, #62 ) ;
#4 = ADVANCED_FACE ( 'NONE', ( #141 ), #163, .F. ) ;
#5 = ORIENTED_EDGE ( 'NONE', *, *, #9, .T. ) ;
#6 = PERSON_AND_ORGANIZATION ( #153, #122 ) ;
#7 = EDGE_LOOP ( 'NONE', ( #99 ) ) ;
#8 = PERSON_AND_ORGANIZATION_ROLE ( 'design_supplier' ) ;
#9 = EDGE_CURVE ( 'NONE', #45, #45, #44, .T. ) ;
#10 = CLOSED_SHELL ( 'NONE', ( #136, #172, #40, #181 ) ) ;
#11 = EDGE_CURVE ( 'NONE', #220, #220, #32, .T. ) ;
#12 = DIRECTION ( 'NONE',  ( -3.491481338843133355E-15, 1.224646799147353207E-16, -1.000000000000000000 ) ) ;
#13 = CONICAL_SURFACE ( 'NONE', #162, 2.603999999999997428, 0.7853981633974435050 ) ;
#14 = AXIS2_PLACEMENT_3D ( 'NONE', #201, #38, #161 ) ;
#15 = CYLINDRICAL_SURFACE ( 'NONE', #49, 2.604000000000000536 ) ;
#16 = PRODUCT ( '969448', '969448', '', ( #94 ) ) ;
#17 = DIRECTION ( 'NONE',  ( -3.491481338843133355E-15, 1.224646799147353207E-16, -1.000000000000000000 ) ) ;
#18 = DIRECTION ( 'NONE',  ( 4.275831445896959482E-31, 1.000000000000000000, 1.224646799147353454E-16 ) ) ;
#19 = CC_DESIGN_DATE_AND_TIME_ASSIGNMENT ( #43, #97, ( #59 ) ) ;
#20 = CARTESIAN_POINT ( 'NONE',  ( 7.681258945454892119E-14, 2.604000000000000536, 21.99999999999999645 ) ) ;
#21 = APPROVAL_PERSON_ORGANIZATION ( #42, #98, #206 ) ;
#22 = VERTEX_POINT ( 'NONE', #115 ) ;
#23 =( NAMED_UNIT ( * ) PLANE_ANGLE_UNIT ( ) SI_UNIT ( $, .RADIAN. ) );
#24 = PERSON_AND_ORGANIZATION_ROLE ( 'creator' ) ;
#25 = CIRCLE ( 'NONE', #48, 1.999999999999995337 ) ;
#26 = DIRECTION ( 'NONE',  ( 0.0000000000000000000, 1.000000000000000000, 0.0000000000000000000 ) ) ;
#27 = CC_DESIGN_DATE_AND_TIME_ASSIGNMENT ( #47, #117, ( #110 ) ) ;
#28 = EDGE_LOOP ( 'NONE', ( #156 ) ) ;
#29 = CIRCLE ( 'NONE', #179, 2.000000000000000000 ) ;
#30 = EDGE_LOOP ( 'NONE', ( #120 ) ) ;
#31 = EDGE_LOOP ( 'NONE', ( #232 ) ) ;
#32 = CIRCLE ( 'NONE', #231, 2.604000000000003201 ) ;
#33 = FACE_OUTER_BOUND ( 'NONE', #180, .T. ) ;
#34 = DIRECTION ( 'NONE',  ( 0.0000000000000000000, 1.000000000000000000, 0.0000000000000000000 ) ) ;
#35 = DIRECTION ( 'NONE',  ( -3.491481338843133355E-15, 1.224646799147353207E-16, -1.000000000000000000 ) ) ;
#36 = DIRECTION ( 'NONE',  ( 4.437626599970593894E-31, 1.000000000000000000, 1.249080843877310486E-16 ) ) ;
#37 = CC_DESIGN_PERSON_AND_ORGANIZATION_ASSIGNMENT ( #134, #112, ( #16 ) ) ;
#38 = DIRECTION ( 'NONE',  ( -3.491481338843133355E-15, 1.224646799147353207E-16, -1.000000000000000000 ) ) ;
#39 = COORDINATED_UNIVERSAL_TIME_OFFSET ( 1, 0, .AHEAD. ) ;
#40 = ADVANCED_FACE ( 'NONE', ( #160, #217 ), #15, .T. ) ;
#41 = DIRECTION ( 'NONE',  ( -3.491481338843133355E-15, 1.224646799147353207E-16, -1.000000000000000000 ) ) ;
#42 = PERSON_AND_ORGANIZATION ( #153, #122 ) ;
#43 = DATE_AND_TIME ( #170, #104 ) ;
#44 = CIRCLE ( 'NONE', #119, 2.304000000000000270 ) ;
#45 = VERTEX_POINT ( 'NONE', #133 ) ;
#46 = PERSON_AND_ORGANIZATION ( #153, #122 ) ;
#47 = DATE_AND_TIME ( #66, #86 ) ;
#48 = AXIS2_PLACEMENT_3D ( 'NONE', #108, #51, #187 ) ;
#49 = AXIS2_PLACEMENT_3D ( 'NONE', #126, #85, #211 ) ;
#50 = PLANE ( 'NONE',  #118 ) ;
#51 = DIRECTION ( 'NONE',  ( -3.491481338843133355E-15, 1.224646799147353207E-16, -1.000000000000000000 ) ) ;
#52 = DIRECTION ( 'NONE',  ( -3.491481338843133355E-15, 1.224646799147353207E-16, -1.000000000000000000 ) ) ;
#53 = CARTESIAN_POINT ( 'NONE',  ( -1.140286172906974840E-31, 3.999585494634809286E-33, -3.265909401322468497E-17 ) ) ;
#54 = ADVANCED_BREP_SHAPE_REPRESENTATION ( '969448', ( #221, #223, #90 ), #169 ) ;
#55 = DIRECTION ( 'NONE',  ( -3.491481338843133355E-15, 1.224646799147353207E-16, -1.000000000000000000 ) ) ;
#56 = APPROVAL_STATUS ( 'not_yet_approved' ) ;
#57 = CARTESIAN_POINT ( 'NONE',  ( 2.185667318115801607E-13, -7.666288962662431950E-15, 62.60000000000000142 ) ) ;
#58 = DIRECTION ( 'NONE',  ( 0.0000000000000000000, 1.000000000000000000, 0.0000000000000000000 ) ) ;
#59 = PRODUCT_DEFINITION ( 'UNKNOWN', '', #1, #182 ) ;
#60 = VERTEX_POINT ( 'NONE', #168 ) ;
#61 = CONICAL_SURFACE ( 'NONE', #74, 1.999999999999995337, 0.5235987755982929315 ) ;
#62 = APPROVAL_ROLE ( '' ) ;
#63 = APPROVAL_STATUS ( 'not_yet_approved' ) ;
#64 = DATE_AND_TIME ( #75, #77 ) ;
#65 = EDGE_LOOP ( 'NONE', ( #197 ) ) ;
#66 = CALENDAR_DATE ( 2021, 30, 11 ) ;
#67 = DIRECTION ( 'NONE',  ( 3.491481338843133355E-15, -1.224646799147353207E-16, 1.000000000000000000 ) ) ;
#68 = CC_DESIGN_APPROVAL ( #109, ( #110 ) ) ;
#69 = FACE_OUTER_BOUND ( 'NONE', #7, .T. ) ;
#70 = CARTESIAN_POINT ( 'NONE',  ( 0.0000000000000000000, 0.0000000000000000000, 0.0000000000000000000 ) ) ;
#71 = FACE_OUTER_BOUND ( 'NONE', #30, .T. ) ;
#72 = FACE_OUTER_BOUND ( 'NONE', #194, .T. ) ;
#73 =( LENGTH_UNIT ( ) NAMED_UNIT ( * ) SI_UNIT ( .MILLI., .METRE. ) );
#74 = AXIS2_PLACEMENT_3D ( 'NONE', #125, #199, #34 ) ;
#75 = CALENDAR_DATE ( 2021, 30, 11 ) ;
#76 = PERSON_AND_ORGANIZATION ( #153, #122 ) ;
#77 = LOCAL_TIME ( 15, 36, 52.00000000000000000, #2 ) ;
#78 = PERSON_AND_ORGANIZATION ( #153, #122 ) ;
#79 = SECURITY_CLASSIFICATION_LEVEL ( 'unclassified' ) ;
#80 = EDGE_LOOP ( 'NONE', ( #157 ) ) ;
#81 = SHAPE_DEFINITION_REPRESENTATION ( #146, #54 ) ;
#82 = ORIENTED_EDGE ( 'NONE', *, *, #186, .T. ) ;
#83 = EDGE_LOOP ( 'NONE', ( #177 ) ) ;
#84 = PLANE ( 'NONE',  #14 ) ;
#85 = DIRECTION ( 'NONE',  ( -3.491481338843133355E-15, 1.224646799147353207E-16, -1.000000000000000000 ) ) ;
#86 = LOCAL_TIME ( 15, 36, 52.00000000000000000, #228 ) ;
#87 = DIRECTION ( 'NONE',  ( -3.491481338843133355E-15, 1.224646799147353207E-16, -1.000000000000000000 ) ) ;
#88 = DIRECTION ( 'NONE',  ( 3.491481338843133355E-15, -1.224646799147353207E-16, 1.000000000000000000 ) ) ;
#89 = FACE_OUTER_BOUND ( 'NONE', #83, .T. ) ;
#90 = AXIS2_PLACEMENT_3D ( 'NONE', #224, #167, #242 ) ;
#91 = VERTEX_POINT ( 'NONE', #132 ) ;
#92 = PRODUCT_RELATED_PRODUCT_CATEGORY ( 'detail', '', ( #16 ) ) ;
#93 = VERTEX_POINT ( 'NONE', #204 ) ;
#94 = MECHANICAL_CONTEXT ( 'NONE', #235, 'mechanical' ) ;
#95 = COORDINATED_UNIVERSAL_TIME_OFFSET ( 1, 0, .AHEAD. ) ;
#96 = APPROVAL ( #150, 'UNSPECIFIED' ) ;
#97 = DATE_TIME_ROLE ( 'creation_date' ) ;
#98 = APPROVAL ( #56, 'UNSPECIFIED' ) ;
#99 = ORIENTED_EDGE ( 'NONE', *, *, #11, .F. ) ;
#100 = ORIENTED_EDGE ( 'NONE', *, *, #219, .F. ) ;
#101 = AXIS2_PLACEMENT_3D ( 'NONE', #198, #236, #36 ) ;
#102 = FACE_OUTER_BOUND ( 'NONE', #234, .T. ) ;
#103 = DIRECTION ( 'NONE',  ( 0.0000000000000000000, 1.000000000000000000, 0.0000000000000000000 ) ) ;
#104 = LOCAL_TIME ( 15, 36, 52.00000000000000000, #95 ) ;
#105 = DIRECTION ( 'NONE',  ( 0.0000000000000000000, 1.000000000000000000, 0.0000000000000000000 ) ) ;
#106 = APPLICATION_CONTEXT ( 'configuration controlled 3d designs of mechanical parts and assemblies' ) ;
#107 = DIRECTION ( 'NONE',  ( -4.437626599970593894E-31, -1.000000000000000000, -1.249080843877310486E-16 ) ) ;
#108 = CARTESIAN_POINT ( 'NONE',  ( 8.046523299037218933E-14, -2.822340446962148662E-15, 23.04615868777162646 ) ) ;
#109 = APPROVAL ( #63, 'UNSPECIFIED' ) ;
#110 = SECURITY_CLASSIFICATION ( '', '', #79 ) ;
#111 = PERSON_AND_ORGANIZATION ( #153, #122 ) ;
#112 = PERSON_AND_ORGANIZATION_ROLE ( 'design_owner' ) ;
#113 = CALENDAR_DATE ( 2021, 30, 11 ) ;
#114 = CLOSED_SHELL ( 'NONE', ( #4, #213, #151, #154, #124 ) ) ;
#115 = CARTESIAN_POINT ( 'NONE',  ( 2.199633243471174140E-13, 1.599999999999992317, 63.00000000000000000 ) ) ;
#116 =( NAMED_UNIT ( * ) SI_UNIT ( $, .STERADIAN. ) SOLID_ANGLE_UNIT ( ) );
#117 = DATE_TIME_ROLE ( 'classification_date' ) ;
#118 = AXIS2_PLACEMENT_3D ( 'NONE', #53, #88, #238 ) ;
#119 = AXIS2_PLACEMENT_3D ( 'NONE', #240, #35, #18 ) ;
#120 = ORIENTED_EDGE ( 'NONE', *, *, #138, .T. ) ;
#121 = ORIENTED_EDGE ( 'NONE', *, *, #205, .T. ) ;
#122 = ORGANIZATION ( 'UNSPECIFIED', 'UNSPECIFIED', '' ) ;
#123 = DIRECTION ( 'NONE',  ( 3.491481338843133355E-15, -1.224646799147353207E-16, 1.000000000000000000 ) ) ;
#124 = ADVANCED_FACE ( 'NONE', ( #212 ), #84, .F. ) ;
#125 = CARTESIAN_POINT ( 'NONE',  ( 8.046523299037218933E-14, -2.822340446962148662E-15, 23.04615868777162646 ) ) ;
#126 = CARTESIAN_POINT ( 'NONE',  ( 0.0000000000000000000, 0.0000000000000000000, 0.0000000000000000000 ) ) ;
#127 = AXIS2_PLACEMENT_3D ( 'NONE', #183, #123, #216 ) ;
#128 = CARTESIAN_POINT ( 'NONE',  ( 7.681258945454893382E-14, 1.952687237025737040E-32, 22.00000000000000000 ) ) ;
#129 = CARTESIAN_POINT ( 'NONE',  ( 2.199633243471174140E-13, -7.715274834628325378E-15, 63.00000000000000000 ) ) ;
#130 = VERTEX_POINT ( 'NONE', #243 ) ;
#131 = CIRCLE ( 'NONE', #200, 1.600000000000000089 ) ;
#132 = CARTESIAN_POINT ( 'NONE',  ( 1.047444401652940007E-15, 2.603999999999997428, 0.3000000000000000444 ) ) ;
#133 = CARTESIAN_POINT ( 'NONE',  ( 7.570943305532645426E-31, 2.304000000000000270, 2.168404344971008868E-16 ) ) ;
#134 = PERSON_AND_ORGANIZATION ( #153, #122 ) ;
#135 = AXIS2_PLACEMENT_3D ( 'NONE', #184, #87, #26 ) ;
#136 = ADVANCED_FACE ( 'NONE', ( #72 ), #50, .F. ) ;
#137 = EDGE_LOOP ( 'NONE', ( #82 ) ) ;
#138 = EDGE_CURVE ( 'NONE', #91, #91, #166, .T. ) ;
#139 = ORIENTED_EDGE ( 'NONE', *, *, #219, .T. ) ;
#140 = DATE_AND_TIME ( #193, #143 ) ;
#141 = FACE_OUTER_BOUND ( 'NONE', #173, .T. ) ;
#142 = DIRECTION ( 'NONE',  ( 3.491481338843133355E-15, -1.224646799147353207E-16, 1.000000000000000000 ) ) ;
#143 = LOCAL_TIME ( 15, 36, 52.00000000000000000, #178 ) ;
#144 = PLANE ( 'NONE',  #127 ) ;
#145 = CARTESIAN_POINT ( 'NONE',  ( 7.681258945454892119E-14, -2.694222958124176415E-15, 21.99999999999999645 ) ) ;
#146 = PRODUCT_DEFINITION_SHAPE ( 'NONE', 'NONE',  #59 ) ;
#147 = CARTESIAN_POINT ( 'NONE',  ( 1.047444401652939021E-15, -3.673940397442056417E-17, 0.2999999999999997113 ) ) ;
#148 = AXIS2_PLACEMENT_3D ( 'NONE', #128, #142, #185 ) ;
#149 = FACE_BOUND ( 'NONE', #175, .T. ) ;
#150 = APPROVAL_STATUS ( 'not_yet_approved' ) ;
#151 = ADVANCED_FACE ( 'NONE', ( #89, #102 ), #215, .T. ) ;
#152 = DATE_AND_TIME ( #113, #209 ) ;
#153 = PERSON ( 'UNSPECIFIED', 'UNSPECIFIED', 'UNSPECIFIED', ('UNSPECIFIED'), ('UNSPECIFIED'), ('UNSPECIFIED') ) ;
#154 = ADVANCED_FACE ( 'NONE', ( #165, #149 ), #192, .T. ) ;
#155 = APPROVAL_PERSON_ORGANIZATION ( #171, #96, #190 ) ;
#156 = ORIENTED_EDGE ( 'NONE', *, *, #205, .F. ) ;
#157 = ORIENTED_EDGE ( 'NONE', *, *, #9, .F. ) ;
#158 = APPROVAL_DATE_TIME ( #64, #96 ) ;
#159 = AXIS2_PLACEMENT_3D ( 'NONE', #70, #55, #164 ) ;
#160 = FACE_OUTER_BOUND ( 'NONE', #229, .T. ) ;
#161 = DIRECTION ( 'NONE',  ( 4.275831445896958607E-31, 1.000000000000000000, 1.224646799147353207E-16 ) ) ;
#162 = AXIS2_PLACEMENT_3D ( 'NONE', #147, #67, #107 ) ;
#163 = PLANE ( 'NONE',  #148 ) ;
#164 = DIRECTION ( 'NONE',  ( 4.275831445896959482E-31, 1.000000000000000000, 1.224646799147353454E-16 ) ) ;
#165 = FACE_OUTER_BOUND ( 'NONE', #31, .T. ) ;
#166 = CIRCLE ( 'NONE', #101, 2.603999999999997428 ) ;
#167 = DIRECTION ( 'NONE',  ( 0.0000000000000000000, 0.0000000000000000000, 1.000000000000000000 ) ) ;
#168 = CARTESIAN_POINT ( 'NONE',  ( 7.681258945454892119E-14, 2.604000000000000536, 21.99999999999999645 ) ) ;
#169 =( GEOMETRIC_REPRESENTATION_CONTEXT ( 3 ) GLOBAL_UNCERTAINTY_ASSIGNED_CONTEXT ( ( #214 ) ) GLOBAL_UNIT_ASSIGNED_CONTEXT ( ( #73, #23, #116 ) ) REPRESENTATION_CONTEXT ( 'NONE', 'WORKASPACE' ) );
#170 = CALENDAR_DATE ( 2021, 30, 11 ) ;
#171 = PERSON_AND_ORGANIZATION ( #153, #122 ) ;
#172 = ADVANCED_FACE ( 'NONE', ( #239, #71 ), #13, .T. ) ;
#173 = EDGE_LOOP ( 'NONE', ( #139 ) ) ;
#174 = CC_DESIGN_PERSON_AND_ORGANIZATION_ASSIGNMENT ( #46, #176, ( #1 ) ) ;
#175 = EDGE_LOOP ( 'NONE', ( #121 ) ) ;
#176 = PERSON_AND_ORGANIZATION_ROLE ( 'creator' ) ;
#177 = ORIENTED_EDGE ( 'NONE', *, *, #186, .F. ) ;
#178 = COORDINATED_UNIVERSAL_TIME_OFFSET ( 1, 0, .AHEAD. ) ;
#179 = AXIS2_PLACEMENT_3D ( 'NONE', #57, #41, #58 ) ;
#180 = EDGE_LOOP ( 'NONE', ( #100 ) ) ;
#181 = ADVANCED_FACE ( 'NONE', ( #69 ), #144, .T. ) ;
#182 = DESIGN_CONTEXT ( 'detailed design', #106, 'design' ) ;
#183 = CARTESIAN_POINT ( 'NONE',  ( 7.681258945454893382E-14, 1.952687237025737040E-32, 22.00000000000000000 ) ) ;
#184 = CARTESIAN_POINT ( 'NONE',  ( 7.681258945454892119E-14, -2.694222958124176415E-15, 21.99999999999999645 ) ) ;
#185 = DIRECTION ( 'NONE',  ( -4.275831445896958607E-31, -1.000000000000000000, -1.224646799147353207E-16 ) ) ;
#186 = EDGE_CURVE ( 'NONE', #130, #130, #25, .T. ) ;
#187 = DIRECTION ( 'NONE',  ( 0.0000000000000000000, 1.000000000000000000, 0.0000000000000000000 ) ) ;
#188 = DIRECTION ( 'NONE',  ( 0.0000000000000000000, 1.000000000000000000, 0.0000000000000000000 ) ) ;
#189 = CC_DESIGN_PERSON_AND_ORGANIZATION_ASSIGNMENT ( #111, #24, ( #59 ) ) ;
#190 = APPROVAL_ROLE ( '' ) ;
#191 = APPROVAL_DATE_TIME ( #152, #98 ) ;
#192 = CONICAL_SURFACE ( 'NONE', #227, 1.600000000000000089, 0.7853981633974512766 ) ;
#193 = CALENDAR_DATE ( 2021, 30, 11 ) ;
#194 = EDGE_LOOP ( 'NONE', ( #5 ) ) ;
#195 = CC_DESIGN_APPROVAL ( #98, ( #59 ) ) ;
#196 = ORIENTED_EDGE ( 'NONE', *, *, #138, .F. ) ;
#197 = ORIENTED_EDGE ( 'NONE', *, *, #11, .T. ) ;
#198 = CARTESIAN_POINT ( 'NONE',  ( 1.047444401652939021E-15, -3.673940397442056417E-17, 0.2999999999999997113 ) ) ;
#199 = DIRECTION ( 'NONE',  ( -3.491481338843133355E-15, 1.224646799147353207E-16, -1.000000000000000000 ) ) ;
#200 = AXIS2_PLACEMENT_3D ( 'NONE', #202, #52, #188 ) ;
#201 = CARTESIAN_POINT ( 'NONE',  ( 2.199633243471174140E-13, 1.199807826129474591E-32, 63.00000000000000000 ) ) ;
#202 = CARTESIAN_POINT ( 'NONE',  ( 2.199633243471174140E-13, -7.715274834628325378E-15, 63.00000000000000000 ) ) ;
#203 = CC_DESIGN_PERSON_AND_ORGANIZATION_ASSIGNMENT ( #6, #8, ( #1 ) ) ;
#204 = CARTESIAN_POINT ( 'NONE',  ( 2.185667318115801607E-13, 1.999999999999992228, 62.60000000000000142 ) ) ;
#205 = EDGE_CURVE ( 'NONE', #22, #22, #131, .T. ) ;
#206 = APPROVAL_ROLE ( '' ) ;
#207 = APPROVAL_DATE_TIME ( #140, #109 ) ;
#208 = ORIENTED_EDGE ( 'NONE', *, *, #225, .T. ) ;
#209 = LOCAL_TIME ( 15, 36, 52.00000000000000000, #39 ) ;
#210 = CC_DESIGN_APPROVAL ( #96, ( #1 ) ) ;
#211 = DIRECTION ( 'NONE',  ( 4.275831445896958607E-31, 1.000000000000000000, 1.224646799147353207E-16 ) ) ;
#212 = FACE_OUTER_BOUND ( 'NONE', #28, .T. ) ;
#213 = ADVANCED_FACE ( 'NONE', ( #33, #237 ), #61, .T. ) ;
#214 = UNCERTAINTY_MEASURE_WITH_UNIT (LENGTH_MEASURE( 1.000000000000000082E-05 ), #73, 'distance_accuracy_value', 'NONE');
#215 = CYLINDRICAL_SURFACE ( 'NONE', #159, 1.999999999999997335 ) ;
#216 = DIRECTION ( 'NONE',  ( -4.275831445896958607E-31, -1.000000000000000000, -1.224646799147353207E-16 ) ) ;
#217 = FACE_OUTER_BOUND ( 'NONE', #65, .T. ) ;
#218 = APPLICATION_PROTOCOL_DEFINITION ( 'international standard', 'config_control_design', 1994, #106 ) ;
#219 = EDGE_CURVE ( 'NONE', #60, #60, #241, .T. ) ;
#220 = VERTEX_POINT ( 'NONE', #20 ) ;
#221 = MANIFOLD_SOLID_BREP ( 'Corps-Déplacer/Copier1[1]', #114 ) ;
#222 = CC_DESIGN_SECURITY_CLASSIFICATION ( #110, ( #1 ) ) ;
#223 = MANIFOLD_SOLID_BREP ( 'Corps-Déplacer/Copier1[2]', #10 ) ;
#224 = CARTESIAN_POINT ( 'NONE',  ( 0.0000000000000000000, 0.0000000000000000000, 0.0000000000000000000 ) ) ;
#225 = EDGE_CURVE ( 'NONE', #93, #93, #29, .T. ) ;
#226 = APPLICATION_PROTOCOL_DEFINITION ( 'international standard', 'config_control_design', 1994, #235 ) ;
#227 = AXIS2_PLACEMENT_3D ( 'NONE', #129, #12, #103 ) ;
#228 = COORDINATED_UNIVERSAL_TIME_OFFSET ( 1, 0, .AHEAD. ) ;
#229 = EDGE_LOOP ( 'NONE', ( #196 ) ) ;
#230 = PERSON_AND_ORGANIZATION_ROLE ( 'classification_officer' ) ;
#231 = AXIS2_PLACEMENT_3D ( 'NONE', #145, #17, #105 ) ;
#232 = ORIENTED_EDGE ( 'NONE', *, *, #225, .F. ) ;
#233 = CC_DESIGN_PERSON_AND_ORGANIZATION_ASSIGNMENT ( #78, #230, ( #110 ) ) ;
#234 = EDGE_LOOP ( 'NONE', ( #208 ) ) ;
#235 = APPLICATION_CONTEXT ( 'configuration controlled 3d designs of mechanical parts and assemblies' ) ;
#236 = DIRECTION ( 'NONE',  ( -3.491481338843133355E-15, 1.224646799147353207E-16, -1.000000000000000000 ) ) ;
#237 = FACE_BOUND ( 'NONE', #137, .T. ) ;
#238 = DIRECTION ( 'NONE',  ( -4.275831445896958607E-31, -1.000000000000000000, -1.224646799147353207E-16 ) ) ;
#239 = FACE_BOUND ( 'NONE', #80, .T. ) ;
#240 = CARTESIAN_POINT ( 'NONE',  ( -2.280572345813949681E-31, 7.999170989269618571E-33, -6.531818802644936993E-17 ) ) ;
#241 = CIRCLE ( 'NONE', #135, 2.604000000000003201 ) ;
#242 = DIRECTION ( 'NONE',  ( 1.000000000000000000, 0.0000000000000000000, 0.0000000000000000000 ) ) ;
#243 = CARTESIAN_POINT ( 'NONE',  ( 8.046523299037218933E-14, 1.999999999999992228, 23.04615868777162646 ) ) ;
ENDSEC;
END-ISO-10303-21;
