ISO-10303-21;
HEADER;
FILE_DESCRIPTION (( 'STEP AP203' ),
    '1' );
FILE_NAME ('969447.step',
    '2021-11-30T14:36:51',
    ( '' ),
    ( '' ),
    'SwSTEP 2.0',
    'SolidWorks 2019',
    '' );
FILE_SCHEMA (( 'CONFIG_CONTROL_DESIGN' ));
ENDSEC;

DATA;
#1 = APPLICATION_CONTEXT ( 'configuration controlled 3d designs of mechanical parts and assemblies' ) ;
#2 = ORIENTED_EDGE ( 'NONE', *, *, #17, .T. ) ;
#3 = AXIS2_PLACEMENT_3D ( 'NONE', #117, #118, #24 ) ;
#4 = PLANE ( 'NONE',  #144 ) ;
#5 = DIRECTION ( 'NONE',  ( 3.491481338843133355E-15, -1.224646799147353207E-16, 1.000000000000000000 ) ) ;
#6 = CARTESIAN_POINT ( 'NONE',  ( 1.047444401652939021E-15, -3.673940397442056417E-17, 0.2999999999999997113 ) ) ;
#7 = CONICAL_SURFACE ( 'NONE', #177, 1.999999999999994893, 0.5235987755982924874 ) ;
#8 = FACE_OUTER_BOUND ( 'NONE', #71, .T. ) ;
#9 = ADVANCED_FACE ( 'NONE', ( #185 ), #39, .F. ) ;
#10 = DIRECTION ( 'NONE',  ( -3.491481338843133355E-15, 1.224646799147353207E-16, -1.000000000000000000 ) ) ;
#11 = CARTESIAN_POINT ( 'NONE',  ( 2.199633243471174140E-13, -7.715274834628325378E-15, 63.00000000000000000 ) ) ;
#12 = CC_DESIGN_APPROVAL ( #230, ( #96 ) ) ;
#13 = CC_DESIGN_PERSON_AND_ORGANIZATION_ASSIGNMENT ( #158, #125, ( #29 ) ) ;
#14 = APPROVAL_DATE_TIME ( #126, #230 ) ;
#15 = EDGE_LOOP ( 'NONE', ( #204 ) ) ;
#16 = EDGE_LOOP ( 'NONE', ( #182 ) ) ;
#17 = EDGE_CURVE ( 'NONE', #124, #124, #84, .T. ) ;
#18 = ORIENTED_EDGE ( 'NONE', *, *, #199, .F. ) ;
#19 = CARTESIAN_POINT ( 'NONE',  ( 0.0000000000000000000, 0.0000000000000000000, 0.0000000000000000000 ) ) ;
#20 = FACE_OUTER_BOUND ( 'NONE', #15, .T. ) ;
#21 = CARTESIAN_POINT ( 'NONE',  ( 7.681258945454893382E-14, -2.694222958124176809E-15, 22.00000000000000000 ) ) ;
#22 = MANIFOLD_SOLID_BREP ( 'Corps-Déplacer/Copier1[1]', #85 ) ;
#23 = DIRECTION ( 'NONE',  ( -3.491481338843133355E-15, 1.224646799147353207E-16, -1.000000000000000000 ) ) ;
#24 = DIRECTION ( 'NONE',  ( 0.0000000000000000000, 1.000000000000000000, 0.0000000000000000000 ) ) ;
#25 = PERSON ( 'UNSPECIFIED', 'UNSPECIFIED', 'UNSPECIFIED', ('UNSPECIFIED'), ('UNSPECIFIED'), ('UNSPECIFIED') ) ;
#26 = CARTESIAN_POINT ( 'NONE',  ( 1.047444401652940007E-15, 2.553999999999997161, 0.3000000000000000444 ) ) ;
#27 = EDGE_CURVE ( 'NONE', #198, #198, #42, .T. ) ;
#28 = DATE_AND_TIME ( #87, #63 ) ;
#29 = PRODUCT_DEFINITION_FORMATION_WITH_SPECIFIED_SOURCE ( 'ANY', '', #113, .NOT_KNOWN. ) ;
#30 =( NAMED_UNIT ( * ) SI_UNIT ( $, .STERADIAN. ) SOLID_ANGLE_UNIT ( ) );
#31 = COORDINATED_UNIVERSAL_TIME_OFFSET ( 1, 0, .AHEAD. ) ;
#32 = APPROVAL ( #110, 'UNSPECIFIED' ) ;
#33 = CARTESIAN_POINT ( 'NONE',  ( 2.185667318115801607E-13, 1.999999999999992228, 62.60000000000000142 ) ) ;
#34 = COORDINATED_UNIVERSAL_TIME_OFFSET ( 1, 0, .AHEAD. ) ;
#35 = APPROVAL_STATUS ( 'not_yet_approved' ) ;
#36 = CC_DESIGN_DATE_AND_TIME_ASSIGNMENT ( #65, #147, ( #129 ) ) ;
#37 = AXIS2_PLACEMENT_3D ( 'NONE', #167, #5, #44 ) ;
#38 = AXIS2_PLACEMENT_3D ( 'NONE', #137, #234, #57 ) ;
#39 = PLANE ( 'NONE',  #54 ) ;
#40 = PERSON_AND_ORGANIZATION ( #25, #239 ) ;
#41 = EDGE_LOOP ( 'NONE', ( #90 ) ) ;
#42 = CIRCLE ( 'NONE', #123, 2.553999999999998050 ) ;
#43 = CARTESIAN_POINT ( 'NONE',  ( 7.681258945454893382E-14, -2.694222958124176809E-15, 22.00000000000000000 ) ) ;
#44 = DIRECTION ( 'NONE',  ( -4.275831445896958607E-31, -1.000000000000000000, -1.224646799147353207E-16 ) ) ;
#45 = DIRECTION ( 'NONE',  ( 0.0000000000000000000, 1.000000000000000000, 0.0000000000000000000 ) ) ;
#46 = VERTEX_POINT ( 'NONE', #49 ) ;
#47 = CALENDAR_DATE ( 2021, 30, 11 ) ;
#48 = MECHANICAL_CONTEXT ( 'NONE', #1, 'mechanical' ) ;
#49 = CARTESIAN_POINT ( 'NONE',  ( 2.199633243471174140E-13, 1.599999999999992317, 63.00000000000000000 ) ) ;
#50 = APPROVAL_DATE_TIME ( #176, #32 ) ;
#51 = APPROVAL_ROLE ( '' ) ;
#52 = CC_DESIGN_PERSON_AND_ORGANIZATION_ASSIGNMENT ( #160, #174, ( #29 ) ) ;
#53 = FACE_OUTER_BOUND ( 'NONE', #16, .T. ) ;
#54 = AXIS2_PLACEMENT_3D ( 'NONE', #78, #193, #102 ) ;
#55 = FACE_BOUND ( 'NONE', #115, .T. ) ;
#56 = ADVANCED_FACE ( 'NONE', ( #154, #191 ), #59, .T. ) ;
#57 = DIRECTION ( 'NONE',  ( 0.0000000000000000000, 1.000000000000000000, 0.0000000000000000000 ) ) ;
#58 = DIRECTION ( 'NONE',  ( 4.275831445896958607E-31, 1.000000000000000000, 1.224646799147353207E-16 ) ) ;
#59 = CYLINDRICAL_SURFACE ( 'NONE', #114, 2.553999999999997605 ) ;
#60 = APPROVAL_PERSON_ORGANIZATION ( #40, #230, #179 ) ;
#61 = CARTESIAN_POINT ( 'NONE',  ( 0.0000000000000000000, 0.0000000000000000000, 0.0000000000000000000 ) ) ;
#62 = PERSON_AND_ORGANIZATION_ROLE ( 'design_owner' ) ;
#63 = LOCAL_TIME ( 15, 36, 51.00000000000000000, #242 ) ;
#64 = DIRECTION ( 'NONE',  ( 0.0000000000000000000, 1.000000000000000000, 0.0000000000000000000 ) ) ;
#65 = DATE_AND_TIME ( #203, #77 ) ;
#66 = DIRECTION ( 'NONE',  ( -3.491481338843133355E-15, 1.224646799147353207E-16, -1.000000000000000000 ) ) ;
#67 = APPROVAL_DATE_TIME ( #127, #210 ) ;
#68 = AXIS2_PLACEMENT_3D ( 'NONE', #212, #103, #97 ) ;
#69 = EDGE_LOOP ( 'NONE', ( #164 ) ) ;
#70 = EDGE_LOOP ( 'NONE', ( #93 ) ) ;
#71 = EDGE_LOOP ( 'NONE', ( #227 ) ) ;
#72 = ORIENTED_EDGE ( 'NONE', *, *, #88, .F. ) ;
#73 = CARTESIAN_POINT ( 'NONE',  ( 0.0000000000000000000, 0.0000000000000000000, 0.0000000000000000000 ) ) ;
#74 = ADVANCED_FACE ( 'NONE', ( #211, #141 ), #224, .T. ) ;
#75 = DIRECTION ( 'NONE',  ( 0.0000000000000000000, 1.000000000000000000, 0.0000000000000000000 ) ) ;
#76 = AXIS2_PLACEMENT_3D ( 'NONE', #166, #235, #95 ) ;
#77 = LOCAL_TIME ( 15, 36, 51.00000000000000000, #201 ) ;
#78 = CARTESIAN_POINT ( 'NONE',  ( 7.681258945454893382E-14, 1.915193242459187042E-32, 22.00000000000000000 ) ) ;
#79 = DIRECTION ( 'NONE',  ( -3.491481338843133355E-15, 1.224646799147353207E-16, -1.000000000000000000 ) ) ;
#80 = PRODUCT_RELATED_PRODUCT_CATEGORY ( 'detail', '', ( #113 ) ) ;
#81 = DIRECTION ( 'NONE',  ( -3.491481338843133355E-15, 1.224646799147353207E-16, -1.000000000000000000 ) ) ;
#82 = APPLICATION_CONTEXT ( 'configuration controlled 3d designs of mechanical parts and assemblies' ) ;
#83 =( NAMED_UNIT ( * ) PLANE_ANGLE_UNIT ( ) SI_UNIT ( $, .RADIAN. ) );
#84 = CIRCLE ( 'NONE', #68, 2.553999999999997161 ) ;
#85 = CLOSED_SHELL ( 'NONE', ( #9, #150, #159, #217, #168 ) ) ;
#86 = PERSON_AND_ORGANIZATION ( #25, #239 ) ;
#87 = CALENDAR_DATE ( 2021, 30, 11 ) ;
#88 = EDGE_CURVE ( 'NONE', #175, #175, #226, .T. ) ;
#89 = DATE_TIME_ROLE ( 'creation_date' ) ;
#90 = ORIENTED_EDGE ( 'NONE', *, *, #237, .T. ) ;
#91 = AXIS2_PLACEMENT_3D ( 'NONE', #107, #66, #222 ) ;
#92 = EDGE_LOOP ( 'NONE', ( #18 ) ) ;
#93 = ORIENTED_EDGE ( 'NONE', *, *, #27, .T. ) ;
#94 = LOCAL_TIME ( 15, 36, 51.00000000000000000, #34 ) ;
#95 = DIRECTION ( 'NONE',  ( -4.275831445896958607E-31, -1.000000000000000000, -1.224646799147353207E-16 ) ) ;
#96 = PRODUCT_DEFINITION ( 'UNKNOWN', '', #29, #101 ) ;
#97 = DIRECTION ( 'NONE',  ( 4.524502610150128325E-31, 1.000000000000000000, 1.273534266819309654E-16 ) ) ;
#98 = DIRECTION ( 'NONE',  ( 4.275831445896959482E-31, 1.000000000000000000, 1.224646799147353454E-16 ) ) ;
#99 = CIRCLE ( 'NONE', #91, 2.254000000000000004 ) ;
#100 = APPROVAL_PERSON_ORGANIZATION ( #86, #32, #121 ) ;
#101 = DESIGN_CONTEXT ( 'detailed design', #82, 'design' ) ;
#102 = DIRECTION ( 'NONE',  ( -4.275831445896958607E-31, -1.000000000000000000, -1.224646799147353207E-16 ) ) ;
#103 = DIRECTION ( 'NONE',  ( -3.491481338843133355E-15, 1.224646799147353207E-16, -1.000000000000000000 ) ) ;
#104 = SHAPE_DEFINITION_REPRESENTATION ( #148, #236 ) ;
#105 = ADVANCED_FACE ( 'NONE', ( #156 ), #213, .F. ) ;
#106 = SECURITY_CLASSIFICATION_LEVEL ( 'unclassified' ) ;
#107 = CARTESIAN_POINT ( 'NONE',  ( -9.637724079051746650E-31, 3.380458550119827749E-32, -2.760353885278134180E-16 ) ) ;
#108 = PERSON_AND_ORGANIZATION_ROLE ( 'classification_officer' ) ;
#109 = APPLICATION_PROTOCOL_DEFINITION ( 'international standard', 'config_control_design', 1994, #1 ) ;
#110 = APPROVAL_STATUS ( 'not_yet_approved' ) ;
#111 = AXIS2_PLACEMENT_3D ( 'NONE', #139, #169, #75 ) ;
#112 = CALENDAR_DATE ( 2021, 30, 11 ) ;
#113 = PRODUCT ( '969447', '969447', '', ( #48 ) ) ;
#114 = AXIS2_PLACEMENT_3D ( 'NONE', #73, #81, #172 ) ;
#115 = EDGE_LOOP ( 'NONE', ( #184 ) ) ;
#116 = EDGE_LOOP ( 'NONE', ( #135 ) ) ;
#117 = CARTESIAN_POINT ( 'NONE',  ( 2.185667318115801607E-13, -7.666288962662431950E-15, 62.60000000000000142 ) ) ;
#118 = DIRECTION ( 'NONE',  ( -3.491481338843133355E-15, 1.224646799147353207E-16, -1.000000000000000000 ) ) ;
#119 = DIRECTION ( 'NONE',  ( 0.0000000000000000000, 1.000000000000000000, 0.0000000000000000000 ) ) ;
#120 = DIRECTION ( 'NONE',  ( 1.000000000000000000, 0.0000000000000000000, 0.0000000000000000000 ) ) ;
#121 = APPROVAL_ROLE ( '' ) ;
#122 = EDGE_CURVE ( 'NONE', #195, #195, #206, .T. ) ;
#123 = AXIS2_PLACEMENT_3D ( 'NONE', #43, #238, #190 ) ;
#124 = VERTEX_POINT ( 'NONE', #26 ) ;
#125 = PERSON_AND_ORGANIZATION_ROLE ( 'design_supplier' ) ;
#126 = DATE_AND_TIME ( #47, #149 ) ;
#127 = DATE_AND_TIME ( #112, #202 ) ;
#128 = CLOSED_SHELL ( 'NONE', ( #105, #74, #56, #189 ) ) ;
#129 = SECURITY_CLASSIFICATION ( '', '', #106 ) ;
#130 = UNCERTAINTY_MEASURE_WITH_UNIT (LENGTH_MEASURE( 1.000000000000000082E-05 ), #173, 'distance_accuracy_value', 'NONE');
#131 = CC_DESIGN_PERSON_AND_ORGANIZATION_ASSIGNMENT ( #241, #62, ( #113 ) ) ;
#132 = EDGE_LOOP ( 'NONE', ( #207 ) ) ;
#133 = CONICAL_SURFACE ( 'NONE', #38, 1.600000000000000089, 0.7853981633974512766 ) ;
#134 = EDGE_LOOP ( 'NONE', ( #2 ) ) ;
#135 = ORIENTED_EDGE ( 'NONE', *, *, #122, .T. ) ;
#136 = PLANE ( 'NONE',  #37 ) ;
#137 = CARTESIAN_POINT ( 'NONE',  ( 2.199633243471174140E-13, -7.715274834628325378E-15, 63.00000000000000000 ) ) ;
#138 = DIRECTION ( 'NONE',  ( 3.491481338843133355E-15, -1.224646799147353207E-16, 1.000000000000000000 ) ) ;
#139 = CARTESIAN_POINT ( 'NONE',  ( 8.016286183674441366E-14, -2.811734694574899009E-15, 22.95955614739317596 ) ) ;
#140 = AXIS2_PLACEMENT_3D ( 'NONE', #61, #215, #120 ) ;
#141 = FACE_OUTER_BOUND ( 'NONE', #134, .T. ) ;
#142 = DIRECTION ( 'NONE',  ( -3.491481338843133355E-15, 1.224646799147353207E-16, -1.000000000000000000 ) ) ;
#143 = CC_DESIGN_DATE_AND_TIME_ASSIGNMENT ( #28, #89, ( #96 ) ) ;
#144 = AXIS2_PLACEMENT_3D ( 'NONE', #231, #155, #58 ) ;
#145 = AXIS2_PLACEMENT_3D ( 'NONE', #11, #142, #64 ) ;
#146 = CARTESIAN_POINT ( 'NONE',  ( 7.681258945454893382E-14, 2.553999999999995385, 22.00000000000000000 ) ) ;
#147 = DATE_TIME_ROLE ( 'classification_date' ) ;
#148 = PRODUCT_DEFINITION_SHAPE ( 'NONE', 'NONE',  #96 ) ;
#149 = LOCAL_TIME ( 15, 36, 51.00000000000000000, #31 ) ;
#150 = ADVANCED_FACE ( 'NONE', ( #20, #214 ), #7, .T. ) ;
#151 = ORIENTED_EDGE ( 'NONE', *, *, #199, .T. ) ;
#152 = EDGE_LOOP ( 'NONE', ( #225 ) ) ;
#153 = CARTESIAN_POINT ( 'NONE',  ( 8.016286183674441366E-14, -2.811734694574899009E-15, 22.95955614739317596 ) ) ;
#154 = FACE_OUTER_BOUND ( 'NONE', #152, .T. ) ;
#155 = DIRECTION ( 'NONE',  ( -3.491481338843133355E-15, 1.224646799147353207E-16, -1.000000000000000000 ) ) ;
#156 = FACE_OUTER_BOUND ( 'NONE', #41, .T. ) ;
#157 = FACE_OUTER_BOUND ( 'NONE', #92, .T. ) ;
#158 = PERSON_AND_ORGANIZATION ( #25, #239 ) ;
#159 = ADVANCED_FACE ( 'NONE', ( #157, #8 ), #187, .T. ) ;
#160 = PERSON_AND_ORGANIZATION ( #25, #239 ) ;
#161 = CARTESIAN_POINT ( 'NONE',  ( 7.681258945454893382E-14, 2.553999999999995385, 22.00000000000000000 ) ) ;
#162 = COORDINATED_UNIVERSAL_TIME_OFFSET ( 1, 0, .AHEAD. ) ;
#163 = CC_DESIGN_PERSON_AND_ORGANIZATION_ASSIGNMENT ( #196, #108, ( #129 ) ) ;
#164 = ORIENTED_EDGE ( 'NONE', *, *, #237, .F. ) ;
#165 =( GEOMETRIC_REPRESENTATION_CONTEXT ( 3 ) GLOBAL_UNCERTAINTY_ASSIGNED_CONTEXT ( ( #130 ) ) GLOBAL_UNIT_ASSIGNED_CONTEXT ( ( #173, #83, #30 ) ) REPRESENTATION_CONTEXT ( 'NONE', 'WORKASPACE' ) );
#166 = CARTESIAN_POINT ( 'NONE',  ( -4.818862039525873325E-31, 1.690229275059913874E-32, -1.380176942639067090E-16 ) ) ;
#167 = CARTESIAN_POINT ( 'NONE',  ( 7.681258945454893382E-14, 1.915193242459187042E-32, 22.00000000000000000 ) ) ;
#168 = ADVANCED_FACE ( 'NONE', ( #188 ), #4, .F. ) ;
#169 = DIRECTION ( 'NONE',  ( -3.491481338843133355E-15, 1.224646799147353207E-16, -1.000000000000000000 ) ) ;
#170 = CIRCLE ( 'NONE', #111, 1.999999999999994893 ) ;
#171 = DIRECTION ( 'NONE',  ( -4.524502610150128325E-31, -1.000000000000000000, -1.273534266819309654E-16 ) ) ;
#172 = DIRECTION ( 'NONE',  ( 4.275831445896958607E-31, 1.000000000000000000, 1.224646799147353207E-16 ) ) ;
#173 =( LENGTH_UNIT ( ) NAMED_UNIT ( * ) SI_UNIT ( .MILLI., .METRE. ) );
#174 = PERSON_AND_ORGANIZATION_ROLE ( 'creator' ) ;
#175 = VERTEX_POINT ( 'NONE', #33 ) ;
#176 = DATE_AND_TIME ( #221, #94 ) ;
#177 = AXIS2_PLACEMENT_3D ( 'NONE', #153, #23, #45 ) ;
#178 = CC_DESIGN_APPROVAL ( #32, ( #129 ) ) ;
#179 = APPROVAL_ROLE ( '' ) ;
#180 = PERSON_AND_ORGANIZATION ( #25, #239 ) ;
#181 = CC_DESIGN_PERSON_AND_ORGANIZATION_ASSIGNMENT ( #180, #219, ( #96 ) ) ;
#182 = ORIENTED_EDGE ( 'NONE', *, *, #27, .F. ) ;
#183 = AXIS2_PLACEMENT_3D ( 'NONE', #6, #138, #171 ) ;
#184 = ORIENTED_EDGE ( 'NONE', *, *, #240, .T. ) ;
#185 = FACE_OUTER_BOUND ( 'NONE', #116, .T. ) ;
#186 = MANIFOLD_SOLID_BREP ( 'Corps-Déplacer/Copier1[2]', #128 ) ;
#187 = CYLINDRICAL_SURFACE ( 'NONE', #218, 1.999999999999997335 ) ;
#188 = FACE_OUTER_BOUND ( 'NONE', #132, .T. ) ;
#189 = ADVANCED_FACE ( 'NONE', ( #53 ), #136, .T. ) ;
#190 = DIRECTION ( 'NONE',  ( 0.0000000000000000000, 1.000000000000000000, 0.0000000000000000000 ) ) ;
#191 = FACE_OUTER_BOUND ( 'NONE', #70, .T. ) ;
#192 = AXIS2_PLACEMENT_3D ( 'NONE', #21, #10, #119 ) ;
#193 = DIRECTION ( 'NONE',  ( 3.491481338843133355E-15, -1.224646799147353207E-16, 1.000000000000000000 ) ) ;
#194 = VERTEX_POINT ( 'NONE', #216 ) ;
#195 = VERTEX_POINT ( 'NONE', #146 ) ;
#196 = PERSON_AND_ORGANIZATION ( #25, #239 ) ;
#197 = CC_DESIGN_SECURITY_CLASSIFICATION ( #129, ( #29 ) ) ;
#198 = VERTEX_POINT ( 'NONE', #161 ) ;
#199 = EDGE_CURVE ( 'NONE', #194, #194, #170, .T. ) ;
#200 = VERTEX_POINT ( 'NONE', #220 ) ;
#201 = COORDINATED_UNIVERSAL_TIME_OFFSET ( 1, 0, .AHEAD. ) ;
#202 = LOCAL_TIME ( 15, 36, 51.00000000000000000, #162 ) ;
#203 = CALENDAR_DATE ( 2021, 30, 11 ) ;
#204 = ORIENTED_EDGE ( 'NONE', *, *, #122, .F. ) ;
#205 = APPLICATION_PROTOCOL_DEFINITION ( 'international standard', 'config_control_design', 1994, #82 ) ;
#206 = CIRCLE ( 'NONE', #192, 2.553999999999998050 ) ;
#207 = ORIENTED_EDGE ( 'NONE', *, *, #240, .F. ) ;
#208 = CC_DESIGN_APPROVAL ( #210, ( #29 ) ) ;
#209 = EDGE_LOOP ( 'NONE', ( #151 ) ) ;
#210 = APPROVAL ( #243, 'UNSPECIFIED' ) ;
#211 = FACE_BOUND ( 'NONE', #69, .T. ) ;
#212 = CARTESIAN_POINT ( 'NONE',  ( 1.047444401652939021E-15, -3.673940397442056417E-17, 0.2999999999999997113 ) ) ;
#213 = PLANE ( 'NONE',  #76 ) ;
#214 = FACE_BOUND ( 'NONE', #209, .T. ) ;
#215 = DIRECTION ( 'NONE',  ( 0.0000000000000000000, 0.0000000000000000000, 1.000000000000000000 ) ) ;
#216 = CARTESIAN_POINT ( 'NONE',  ( 8.016286183674441366E-14, 1.999999999999992228, 22.95955614739317596 ) ) ;
#217 = ADVANCED_FACE ( 'NONE', ( #232, #55 ), #133, .T. ) ;
#218 = AXIS2_PLACEMENT_3D ( 'NONE', #19, #79, #98 ) ;
#219 = PERSON_AND_ORGANIZATION_ROLE ( 'creator' ) ;
#220 = CARTESIAN_POINT ( 'NONE',  ( -1.710569414459005214E-46, 2.254000000000000004, 0.0000000000000000000 ) ) ;
#221 = CALENDAR_DATE ( 2021, 30, 11 ) ;
#222 = DIRECTION ( 'NONE',  ( 4.275831445896958607E-31, 1.000000000000000000, 1.224646799147353207E-16 ) ) ;
#223 = PERSON_AND_ORGANIZATION ( #25, #239 ) ;
#224 = CONICAL_SURFACE ( 'NONE', #183, 2.553999999999997161, 0.7853981633974438381 ) ;
#225 = ORIENTED_EDGE ( 'NONE', *, *, #17, .F. ) ;
#226 = CIRCLE ( 'NONE', #3, 2.000000000000000000 ) ;
#227 = ORIENTED_EDGE ( 'NONE', *, *, #88, .T. ) ;
#228 = CIRCLE ( 'NONE', #145, 1.600000000000000089 ) ;
#229 = EDGE_LOOP ( 'NONE', ( #72 ) ) ;
#230 = APPROVAL ( #35, 'UNSPECIFIED' ) ;
#231 = CARTESIAN_POINT ( 'NONE',  ( 2.199633243471174140E-13, 1.199807826129474591E-32, 63.00000000000000000 ) ) ;
#232 = FACE_OUTER_BOUND ( 'NONE', #229, .T. ) ;
#233 = APPROVAL_PERSON_ORGANIZATION ( #223, #210, #51 ) ;
#234 = DIRECTION ( 'NONE',  ( -3.491481338843133355E-15, 1.224646799147353207E-16, -1.000000000000000000 ) ) ;
#235 = DIRECTION ( 'NONE',  ( 3.491481338843133355E-15, -1.224646799147353207E-16, 1.000000000000000000 ) ) ;
#236 = ADVANCED_BREP_SHAPE_REPRESENTATION ( '969447', ( #22, #186, #140 ), #165 ) ;
#237 = EDGE_CURVE ( 'NONE', #200, #200, #99, .T. ) ;
#238 = DIRECTION ( 'NONE',  ( -3.491481338843133355E-15, 1.224646799147353207E-16, -1.000000000000000000 ) ) ;
#239 = ORGANIZATION ( 'UNSPECIFIED', 'UNSPECIFIED', '' ) ;
#240 = EDGE_CURVE ( 'NONE', #46, #46, #228, .T. ) ;
#241 = PERSON_AND_ORGANIZATION ( #25, #239 ) ;
#242 = COORDINATED_UNIVERSAL_TIME_OFFSET ( 1, 0, .AHEAD. ) ;
#243 = APPROVAL_STATUS ( 'not_yet_approved' ) ;
ENDSEC;
END-ISO-10303-21;
