ISO-10303-21;
HEADER;
FILE_DESCRIPTION (( 'STEP AP203' ),
    '1' );
FILE_NAME ('969446.step',
    '2021-11-30T14:23:07',
    ( '' ),
    ( '' ),
    'SwSTEP 2.0',
    'SolidWorks 2019',
    '' );
FILE_SCHEMA (( 'CONFIG_CONTROL_DESIGN' ));
ENDSEC;

DATA;
#1 = ORIENTED_EDGE ( 'NONE', *, *, #239, .F. ) ;
#2 = AXIS2_PLACEMENT_3D ( 'NONE', #87, #140, #214 ) ;
#3 = CLOSED_SHELL ( 'NONE', ( #147, #215, #92, #26, #202 ) ) ;
#4 = CC_DESIGN_PERSON_AND_ORGANIZATION_ASSIGNMENT ( #151, #186, ( #177 ) ) ;
#5 = EDGE_LOOP ( 'NONE', ( #207 ) ) ;
#6 = CIRCLE ( 'NONE', #217, 2.504000000000000004 ) ;
#7 = FACE_OUTER_BOUND ( 'NONE', #68, .T. ) ;
#8 = MANIFOLD_SOLID_BREP ( 'Corps-Déplacer/Copier1[2]', #64 ) ;
#9 = DIRECTION ( 'NONE',  ( 3.491481338843133355E-15, -1.224646799147353207E-16, 1.000000000000000000 ) ) ;
#10 = CALENDAR_DATE ( 2021, 30, 11 ) ;
#11 = CARTESIAN_POINT ( 'NONE',  ( 7.986049068311666323E-14, -2.801128942187649750E-15, 22.87295360701473257 ) ) ;
#12 = CARTESIAN_POINT ( 'NONE',  ( 1.047444401652940007E-15, 2.503999999999997339, 0.3000000000000000444 ) ) ;
#13 = AXIS2_PLACEMENT_3D ( 'NONE', #65, #238, #198 ) ;
#14 = APPROVAL_STATUS ( 'not_yet_approved' ) ;
#15 = VERTEX_POINT ( 'NONE', #156 ) ;
#16 = CC_DESIGN_PERSON_AND_ORGANIZATION_ASSIGNMENT ( #157, #236, ( #89 ) ) ;
#17 = AXIS2_PLACEMENT_3D ( 'NONE', #182, #159, #240 ) ;
#18 = PRODUCT_DEFINITION_SHAPE ( 'NONE', 'NONE',  #130 ) ;
#19 = FACE_OUTER_BOUND ( 'NONE', #165, .T. ) ;
#20 = CC_DESIGN_DATE_AND_TIME_ASSIGNMENT ( #67, #152, ( #130 ) ) ;
#21 = PRODUCT ( '969446', '969446', '', ( #232 ) ) ;
#22 = EDGE_LOOP ( 'NONE', ( #209 ) ) ;
#23 = PRODUCT_RELATED_PRODUCT_CATEGORY ( 'detail', '', ( #21 ) ) ;
#24 = EDGE_LOOP ( 'NONE', ( #1 ) ) ;
#25 = PERSON_AND_ORGANIZATION ( #166, #168 ) ;
#26 = ADVANCED_FACE ( 'NONE', ( #138, #55 ), #73, .T. ) ;
#27 = CIRCLE ( 'NONE', #2, 2.503999999999997339 ) ;
#28 = AXIS2_PLACEMENT_3D ( 'NONE', #93, #84, #212 ) ;
#29 = FACE_BOUND ( 'NONE', #213, .T. ) ;
#30 = CARTESIAN_POINT ( 'NONE',  ( 1.047444401652939021E-15, -3.673940397442056417E-17, 0.2999999999999997113 ) ) ;
#31 = CARTESIAN_POINT ( 'NONE',  ( 2.199633243471174140E-13, 1.599999999999992317, 63.00000000000000000 ) ) ;
#32 = ORIENTED_EDGE ( 'NONE', *, *, #70, .T. ) ;
#33 = PERSON_AND_ORGANIZATION ( #166, #168 ) ;
#34 =( NAMED_UNIT ( * ) PLANE_ANGLE_UNIT ( ) SI_UNIT ( $, .RADIAN. ) );
#35 = CARTESIAN_POINT ( 'NONE',  ( 0.0000000000000000000, 2.204000000000000181, 0.0000000000000000000 ) ) ;
#36 = DIRECTION ( 'NONE',  ( 4.275831445896958607E-31, 1.000000000000000000, 1.224646799147353207E-16 ) ) ;
#37 = PLANE ( 'NONE',  #51 ) ;
#38 = DIRECTION ( 'NONE',  ( 4.275831445896958607E-31, 1.000000000000000000, 1.224646799147353207E-16 ) ) ;
#39 = PERSON_AND_ORGANIZATION ( #166, #168 ) ;
#40 = EDGE_LOOP ( 'NONE', ( #85 ) ) ;
#41 = AXIS2_PLACEMENT_3D ( 'NONE', #148, #222, #129 ) ;
#42 = CIRCLE ( 'NONE', #79, 2.000000000000000000 ) ;
#43 = EDGE_LOOP ( 'NONE', ( #187 ) ) ;
#44 = PLANE ( 'NONE',  #184 ) ;
#45 = DATE_AND_TIME ( #211, #125 ) ;
#46 = DIRECTION ( 'NONE',  ( 0.0000000000000000000, 1.000000000000000000, 0.0000000000000000000 ) ) ;
#47 = DIRECTION ( 'NONE',  ( 0.0000000000000000000, 0.0000000000000000000, 1.000000000000000000 ) ) ;
#48 = CARTESIAN_POINT ( 'NONE',  ( 7.681258945454893382E-14, -2.694222958124176809E-15, 22.00000000000000000 ) ) ;
#49 = APPROVAL_DATE_TIME ( #45, #228 ) ;
#50 = FACE_OUTER_BOUND ( 'NONE', #116, .T. ) ;
#51 = AXIS2_PLACEMENT_3D ( 'NONE', #233, #63, #155 ) ;
#52 =( GEOMETRIC_REPRESENTATION_CONTEXT ( 3 ) GLOBAL_UNCERTAINTY_ASSIGNED_CONTEXT ( ( #75 ) ) GLOBAL_UNIT_ASSIGNED_CONTEXT ( ( #237, #34, #88 ) ) REPRESENTATION_CONTEXT ( 'NONE', 'WORKASPACE' ) );
#53 = PERSON_AND_ORGANIZATION_ROLE ( 'design_owner' ) ;
#54 = PERSON_AND_ORGANIZATION_ROLE ( 'creator' ) ;
#55 = FACE_BOUND ( 'NONE', #40, .T. ) ;
#56 = AXIS2_PLACEMENT_3D ( 'NONE', #100, #174, #242 ) ;
#57 = ADVANCED_FACE ( 'NONE', ( #101, #197 ), #226, .T. ) ;
#58 = ORIENTED_EDGE ( 'NONE', *, *, #70, .F. ) ;
#59 = CIRCLE ( 'NONE', #136, 1.999999999999994893 ) ;
#60 = ORIENTED_EDGE ( 'NONE', *, *, #239, .T. ) ;
#61 = EDGE_CURVE ( 'NONE', #235, #235, #59, .T. ) ;
#62 = DIRECTION ( 'NONE',  ( -3.491481338843133355E-15, 1.224646799147353207E-16, -1.000000000000000000 ) ) ;
#63 = DIRECTION ( 'NONE',  ( 3.491481338843133355E-15, -1.224646799147353207E-16, 1.000000000000000000 ) ) ;
#64 = CLOSED_SHELL ( 'NONE', ( #112, #57, #224, #96 ) ) ;
#65 = CARTESIAN_POINT ( 'NONE',  ( 2.199633243471174140E-13, -7.715274834628325378E-15, 63.00000000000000000 ) ) ;
#66 = DIRECTION ( 'NONE',  ( -3.491481338843133355E-15, 1.224646799147353207E-16, -1.000000000000000000 ) ) ;
#67 = DATE_AND_TIME ( #10, #243 ) ;
#68 = EDGE_LOOP ( 'NONE', ( #170 ) ) ;
#69 = APPLICATION_PROTOCOL_DEFINITION ( 'international standard', 'config_control_design', 1994, #102 ) ;
#70 = EDGE_CURVE ( 'NONE', #180, #180, #6, .T. ) ;
#71 = PERSON_AND_ORGANIZATION ( #166, #168 ) ;
#72 = APPROVAL_PERSON_ORGANIZATION ( #195, #189, #175 ) ;
#73 = CONICAL_SURFACE ( 'NONE', #28, 1.600000000000000089, 0.7853981633974512766 ) ;
#74 = CARTESIAN_POINT ( 'NONE',  ( 7.986049068311666323E-14, 1.999999999999992228, 22.87295360701473257 ) ) ;
#75 = UNCERTAINTY_MEASURE_WITH_UNIT (LENGTH_MEASURE( 1.000000000000000082E-05 ), #237, 'distance_accuracy_value', 'NONE');
#76 = DIRECTION ( 'NONE',  ( -4.614848109554084238E-31, -1.000000000000000000, -1.298964264159950730E-16 ) ) ;
#77 = CC_DESIGN_DATE_AND_TIME_ASSIGNMENT ( #241, #143, ( #177 ) ) ;
#78 = CARTESIAN_POINT ( 'NONE',  ( 0.0000000000000000000, 0.0000000000000000000, 0.0000000000000000000 ) ) ;
#79 = AXIS2_PLACEMENT_3D ( 'NONE', #86, #158, #126 ) ;
#80 = EDGE_LOOP ( 'NONE', ( #58 ) ) ;
#81 = APPROVAL ( #14, 'UNSPECIFIED' ) ;
#82 = CONICAL_SURFACE ( 'NONE', #196, 1.999999999999994893, 0.5235987755982941527 ) ;
#83 = AXIS2_PLACEMENT_3D ( 'NONE', #91, #47, #218 ) ;
#84 = DIRECTION ( 'NONE',  ( -3.491481338843133355E-15, 1.224646799147353207E-16, -1.000000000000000000 ) ) ;
#85 = ORIENTED_EDGE ( 'NONE', *, *, #229, .T. ) ;
#86 = CARTESIAN_POINT ( 'NONE',  ( 2.185667318115801607E-13, -7.666288962662431950E-15, 62.60000000000000142 ) ) ;
#87 = CARTESIAN_POINT ( 'NONE',  ( 1.047444401652939021E-15, -3.673940397442056417E-17, 0.2999999999999997113 ) ) ;
#88 =( NAMED_UNIT ( * ) SI_UNIT ( $, .STERADIAN. ) SOLID_ANGLE_UNIT ( ) );
#89 = PRODUCT_DEFINITION_FORMATION_WITH_SPECIFIED_SOURCE ( 'ANY', '', #21, .NOT_KNOWN. ) ;
#90 = FACE_OUTER_BOUND ( 'NONE', #5, .T. ) ;
#91 = CARTESIAN_POINT ( 'NONE',  ( 0.0000000000000000000, 0.0000000000000000000, 0.0000000000000000000 ) ) ;
#92 = ADVANCED_FACE ( 'NONE', ( #7, #99 ), #171, .T. ) ;
#93 = CARTESIAN_POINT ( 'NONE',  ( 2.199633243471174140E-13, -7.715274834628325378E-15, 63.00000000000000000 ) ) ;
#94 = MANIFOLD_SOLID_BREP ( 'Corps-Déplacer/Copier1[1]', #3 ) ;
#95 = FACE_OUTER_BOUND ( 'NONE', #204, .T. ) ;
#96 = ADVANCED_FACE ( 'NONE', ( #134 ), #37, .T. ) ;
#97 = ORIENTED_EDGE ( 'NONE', *, *, #220, .F. ) ;
#98 = EDGE_LOOP ( 'NONE', ( #190 ) ) ;
#99 = FACE_OUTER_BOUND ( 'NONE', #227, .T. ) ;
#100 = CARTESIAN_POINT ( 'NONE',  ( 7.681258945454893382E-14, -2.694222958124176809E-15, 22.00000000000000000 ) ) ;
#101 = FACE_BOUND ( 'NONE', #98, .T. ) ;
#102 = APPLICATION_CONTEXT ( 'configuration controlled 3d designs of mechanical parts and assemblies' ) ;
#103 = VERTEX_POINT ( 'NONE', #12 ) ;
#104 = CARTESIAN_POINT ( 'NONE',  ( 2.185667318115801607E-13, 1.999999999999992228, 62.60000000000000142 ) ) ;
#105 = VERTEX_POINT ( 'NONE', #104 ) ;
#106 = DIRECTION ( 'NONE',  ( 3.491481338843133355E-15, -1.224646799147353207E-16, 1.000000000000000000 ) ) ;
#107 = COORDINATED_UNIVERSAL_TIME_OFFSET ( 1, 0, .AHEAD. ) ;
#108 = CARTESIAN_POINT ( 'NONE',  ( -4.711966253378448878E-31, 1.652735280493367434E-32, -1.349560772660383451E-16 ) ) ;
#109 = LOCAL_TIME ( 15, 23, 7.000000000000000000, #107 ) ;
#110 = ORIENTED_EDGE ( 'NONE', *, *, #61, .T. ) ;
#111 = ADVANCED_BREP_SHAPE_REPRESENTATION ( '969446', ( #94, #8, #83 ), #52 ) ;
#112 = ADVANCED_FACE ( 'NONE', ( #90 ), #119, .F. ) ;
#113 = AXIS2_PLACEMENT_3D ( 'NONE', #78, #183, #36 ) ;
#114 = APPROVAL_PERSON_ORGANIZATION ( #33, #81, #145 ) ;
#115 = CC_DESIGN_PERSON_AND_ORGANIZATION_ASSIGNMENT ( #219, #54, ( #130 ) ) ;
#116 = EDGE_LOOP ( 'NONE', ( #176 ) ) ;
#117 = FACE_OUTER_BOUND ( 'NONE', #133, .T. ) ;
#118 = SECURITY_CLASSIFICATION_LEVEL ( 'unclassified' ) ;
#119 = PLANE ( 'NONE',  #128 ) ;
#120 = COORDINATED_UNIVERSAL_TIME_OFFSET ( 1, 0, .AHEAD. ) ;
#121 = DIRECTION ( 'NONE',  ( -3.491481338843133355E-15, 1.224646799147353207E-16, -1.000000000000000000 ) ) ;
#122 = CC_DESIGN_PERSON_AND_ORGANIZATION_ASSIGNMENT ( #39, #179, ( #89 ) ) ;
#123 = PLANE ( 'NONE',  #41 ) ;
#124 = CARTESIAN_POINT ( 'NONE',  ( 7.681258945454893382E-14, 2.503999999999997339, 22.00000000000000000 ) ) ;
#125 = LOCAL_TIME ( 15, 23, 7.000000000000000000, #149 ) ;
#126 = DIRECTION ( 'NONE',  ( 0.0000000000000000000, 1.000000000000000000, 0.0000000000000000000 ) ) ;
#127 = EDGE_CURVE ( 'NONE', #103, #103, #27, .T. ) ;
#128 = AXIS2_PLACEMENT_3D ( 'NONE', #108, #106, #234 ) ;
#129 = DIRECTION ( 'NONE',  ( -4.275831445896958607E-31, -1.000000000000000000, -1.224646799147353207E-16 ) ) ;
#130 = PRODUCT_DEFINITION ( 'UNKNOWN', '', #89, #221 ) ;
#131 = CC_DESIGN_APPROVAL ( #189, ( #130 ) ) ;
#132 = EDGE_CURVE ( 'NONE', #199, #199, #163, .T. ) ;
#133 = EDGE_LOOP ( 'NONE', ( #97 ) ) ;
#134 = FACE_OUTER_BOUND ( 'NONE', #80, .T. ) ;
#135 = DIRECTION ( 'NONE',  ( -3.491481338843133355E-15, 1.224646799147353207E-16, -1.000000000000000000 ) ) ;
#136 = AXIS2_PLACEMENT_3D ( 'NONE', #11, #66, #142 ) ;
#137 = CC_DESIGN_APPROVAL ( #228, ( #177 ) ) ;
#138 = FACE_OUTER_BOUND ( 'NONE', #24, .T. ) ;
#139 = APPROVAL_STATUS ( 'not_yet_approved' ) ;
#140 = DIRECTION ( 'NONE',  ( -3.491481338843133355E-15, 1.224646799147353207E-16, -1.000000000000000000 ) ) ;
#141 = APPROVAL_STATUS ( 'not_yet_approved' ) ;
#142 = DIRECTION ( 'NONE',  ( 0.0000000000000000000, 1.000000000000000000, 0.0000000000000000000 ) ) ;
#143 = DATE_TIME_ROLE ( 'classification_date' ) ;
#144 = APPROVAL_DATE_TIME ( #164, #81 ) ;
#145 = APPROVAL_ROLE ( '' ) ;
#146 = ORIENTED_EDGE ( 'NONE', *, *, #127, .F. ) ;
#147 = ADVANCED_FACE ( 'NONE', ( #50 ), #123, .F. ) ;
#148 = CARTESIAN_POINT ( 'NONE',  ( 7.681258945454893382E-14, 1.877699247892641970E-32, 22.00000000000000000 ) ) ;
#149 = COORDINATED_UNIVERSAL_TIME_OFFSET ( 1, 0, .AHEAD. ) ;
#150 = FACE_OUTER_BOUND ( 'NONE', #43, .T. ) ;
#151 = PERSON_AND_ORGANIZATION ( #166, #168 ) ;
#152 = DATE_TIME_ROLE ( 'creation_date' ) ;
#153 = SHAPE_DEFINITION_REPRESENTATION ( #18, #111 ) ;
#154 = CIRCLE ( 'NONE', #56, 2.504000000000000004 ) ;
#155 = DIRECTION ( 'NONE',  ( -4.275831445896958607E-31, -1.000000000000000000, -1.224646799147353207E-16 ) ) ;
#156 = CARTESIAN_POINT ( 'NONE',  ( 7.681258945454893382E-14, 2.503999999999997339, 22.00000000000000000 ) ) ;
#157 = PERSON_AND_ORGANIZATION ( #166, #168 ) ;
#158 = DIRECTION ( 'NONE',  ( -3.491481338843133355E-15, 1.224646799147353207E-16, -1.000000000000000000 ) ) ;
#159 = DIRECTION ( 'NONE',  ( -3.491481338843133355E-15, 1.224646799147353207E-16, -1.000000000000000000 ) ) ;
#160 = CYLINDRICAL_SURFACE ( 'NONE', #113, 2.503999999999998671 ) ;
#161 = COORDINATED_UNIVERSAL_TIME_OFFSET ( 1, 0, .AHEAD. ) ;
#162 = APPLICATION_CONTEXT ( 'configuration controlled 3d designs of mechanical parts and assemblies' ) ;
#163 = CIRCLE ( 'NONE', #17, 2.204000000000000181 ) ;
#164 = DATE_AND_TIME ( #205, #109 ) ;
#165 = EDGE_LOOP ( 'NONE', ( #146 ) ) ;
#166 = PERSON ( 'UNSPECIFIED', 'UNSPECIFIED', 'UNSPECIFIED', ('UNSPECIFIED'), ('UNSPECIFIED'), ('UNSPECIFIED') ) ;
#167 = AXIS2_PLACEMENT_3D ( 'NONE', #192, #121, #194 ) ;
#168 = ORGANIZATION ( 'UNSPECIFIED', 'UNSPECIFIED', '' ) ;
#169 = CC_DESIGN_APPROVAL ( #81, ( #89 ) ) ;
#170 = ORIENTED_EDGE ( 'NONE', *, *, #61, .F. ) ;
#171 = CYLINDRICAL_SURFACE ( 'NONE', #167, 1.999999999999997335 ) ;
#172 = APPLICATION_PROTOCOL_DEFINITION ( 'international standard', 'config_control_design', 1994, #162 ) ;
#173 = APPROVAL_ROLE ( '' ) ;
#174 = DIRECTION ( 'NONE',  ( -3.491481338843133355E-15, 1.224646799147353207E-16, -1.000000000000000000 ) ) ;
#175 = APPROVAL_ROLE ( '' ) ;
#176 = ORIENTED_EDGE ( 'NONE', *, *, #220, .T. ) ;
#177 = SECURITY_CLASSIFICATION ( '', '', #118 ) ;
#178 = VERTEX_POINT ( 'NONE', #31 ) ;
#179 = PERSON_AND_ORGANIZATION_ROLE ( 'creator' ) ;
#180 = VERTEX_POINT ( 'NONE', #124 ) ;
#181 = DATE_AND_TIME ( #216, #206 ) ;
#182 = CARTESIAN_POINT ( 'NONE',  ( -9.423932506756897757E-31, 3.305470560986734868E-32, -2.699121545320766901E-16 ) ) ;
#183 = DIRECTION ( 'NONE',  ( -3.491481338843133355E-15, 1.224646799147353207E-16, -1.000000000000000000 ) ) ;
#184 = AXIS2_PLACEMENT_3D ( 'NONE', #230, #210, #38 ) ;
#185 = CC_DESIGN_SECURITY_CLASSIFICATION ( #177, ( #89 ) ) ;
#186 = PERSON_AND_ORGANIZATION_ROLE ( 'classification_officer' ) ;
#187 = ORIENTED_EDGE ( 'NONE', *, *, #229, .F. ) ;
#188 = CIRCLE ( 'NONE', #13, 1.600000000000000089 ) ;
#189 = APPROVAL ( #141, 'UNSPECIFIED' ) ;
#190 = ORIENTED_EDGE ( 'NONE', *, *, #132, .F. ) ;
#191 = DIRECTION ( 'NONE',  ( 0.0000000000000000000, 1.000000000000000000, 0.0000000000000000000 ) ) ;
#192 = CARTESIAN_POINT ( 'NONE',  ( 0.0000000000000000000, 0.0000000000000000000, 0.0000000000000000000 ) ) ;
#193 = APPROVAL_DATE_TIME ( #181, #189 ) ;
#194 = DIRECTION ( 'NONE',  ( 4.275831445896959482E-31, 1.000000000000000000, 1.224646799147353454E-16 ) ) ;
#195 = PERSON_AND_ORGANIZATION ( #166, #168 ) ;
#196 = AXIS2_PLACEMENT_3D ( 'NONE', #231, #135, #46 ) ;
#197 = FACE_OUTER_BOUND ( 'NONE', #22, .T. ) ;
#198 = DIRECTION ( 'NONE',  ( 0.0000000000000000000, 1.000000000000000000, 0.0000000000000000000 ) ) ;
#199 = VERTEX_POINT ( 'NONE', #35 ) ;
#200 = COORDINATED_UNIVERSAL_TIME_OFFSET ( 1, 0, .AHEAD. ) ;
#201 = CALENDAR_DATE ( 2021, 30, 11 ) ;
#202 = ADVANCED_FACE ( 'NONE', ( #150 ), #44, .F. ) ;
#203 = APPROVAL_PERSON_ORGANIZATION ( #25, #228, #173 ) ;
#204 = EDGE_LOOP ( 'NONE', ( #32 ) ) ;
#205 = CALENDAR_DATE ( 2021, 30, 11 ) ;
#206 = LOCAL_TIME ( 15, 23, 7.000000000000000000, #120 ) ;
#207 = ORIENTED_EDGE ( 'NONE', *, *, #132, .T. ) ;
#208 = CC_DESIGN_PERSON_AND_ORGANIZATION_ASSIGNMENT ( #71, #53, ( #21 ) ) ;
#209 = ORIENTED_EDGE ( 'NONE', *, *, #127, .T. ) ;
#210 = DIRECTION ( 'NONE',  ( -3.491481338843133355E-15, 1.224646799147353207E-16, -1.000000000000000000 ) ) ;
#211 = CALENDAR_DATE ( 2021, 30, 11 ) ;
#212 = DIRECTION ( 'NONE',  ( 0.0000000000000000000, 1.000000000000000000, 0.0000000000000000000 ) ) ;
#213 = EDGE_LOOP ( 'NONE', ( #110 ) ) ;
#214 = DIRECTION ( 'NONE',  ( 4.614848109554084238E-31, 1.000000000000000000, 1.298964264159950730E-16 ) ) ;
#215 = ADVANCED_FACE ( 'NONE', ( #117, #29 ), #82, .T. ) ;
#216 = CALENDAR_DATE ( 2021, 30, 11 ) ;
#217 = AXIS2_PLACEMENT_3D ( 'NONE', #48, #62, #191 ) ;
#218 = DIRECTION ( 'NONE',  ( 1.000000000000000000, 0.0000000000000000000, 0.0000000000000000000 ) ) ;
#219 = PERSON_AND_ORGANIZATION ( #166, #168 ) ;
#220 = EDGE_CURVE ( 'NONE', #15, #15, #154, .T. ) ;
#221 = DESIGN_CONTEXT ( 'detailed design', #162, 'design' ) ;
#222 = DIRECTION ( 'NONE',  ( 3.491481338843133355E-15, -1.224646799147353207E-16, 1.000000000000000000 ) ) ;
#223 = LOCAL_TIME ( 15, 23, 7.000000000000000000, #161 ) ;
#224 = ADVANCED_FACE ( 'NONE', ( #19, #95 ), #160, .T. ) ;
#225 = AXIS2_PLACEMENT_3D ( 'NONE', #30, #9, #76 ) ;
#226 = CONICAL_SURFACE ( 'NONE', #225, 2.503999999999997339, 0.7853981633974438381 ) ;
#227 = EDGE_LOOP ( 'NONE', ( #60 ) ) ;
#228 = APPROVAL ( #139, 'UNSPECIFIED' ) ;
#229 = EDGE_CURVE ( 'NONE', #178, #178, #188, .T. ) ;
#230 = CARTESIAN_POINT ( 'NONE',  ( 2.199633243471174140E-13, 1.199807826129474591E-32, 63.00000000000000000 ) ) ;
#231 = CARTESIAN_POINT ( 'NONE',  ( 7.986049068311666323E-14, -2.801128942187649750E-15, 22.87295360701473257 ) ) ;
#232 = MECHANICAL_CONTEXT ( 'NONE', #102, 'mechanical' ) ;
#233 = CARTESIAN_POINT ( 'NONE',  ( 7.681258945454893382E-14, 1.877699247892641970E-32, 22.00000000000000000 ) ) ;
#234 = DIRECTION ( 'NONE',  ( -4.275831445896958607E-31, -1.000000000000000000, -1.224646799147353207E-16 ) ) ;
#235 = VERTEX_POINT ( 'NONE', #74 ) ;
#236 = PERSON_AND_ORGANIZATION_ROLE ( 'design_supplier' ) ;
#237 =( LENGTH_UNIT ( ) NAMED_UNIT ( * ) SI_UNIT ( .MILLI., .METRE. ) );
#238 = DIRECTION ( 'NONE',  ( -3.491481338843133355E-15, 1.224646799147353207E-16, -1.000000000000000000 ) ) ;
#239 = EDGE_CURVE ( 'NONE', #105, #105, #42, .T. ) ;
#240 = DIRECTION ( 'NONE',  ( 4.275831445896958607E-31, 1.000000000000000000, 1.224646799147353207E-16 ) ) ;
#241 = DATE_AND_TIME ( #201, #223 ) ;
#242 = DIRECTION ( 'NONE',  ( 0.0000000000000000000, 1.000000000000000000, 0.0000000000000000000 ) ) ;
#243 = LOCAL_TIME ( 15, 23, 7.000000000000000000, #200 ) ;
ENDSEC;
END-ISO-10303-21;
