ISO-10303-21;
HEADER;
FILE_DESCRIPTION (( 'STEP AP203' ),
    '1' );
FILE_NAME ('969445.step',
    '2021-11-30T14:23:06',
    ( '' ),
    ( '' ),
    'SwSTEP 2.0',
    'SolidWorks 2019',
    '' );
FILE_SCHEMA (( 'CONFIG_CONTROL_DESIGN' ));
ENDSEC;

DATA;
#1 = ADVANCED_FACE ( 'NONE', ( #36, #114 ), #77, .T. ) ;
#2 = FACE_OUTER_BOUND ( 'NONE', #111, .T. ) ;
#3 = CONICAL_SURFACE ( 'NONE', #165, 1.600000000000000089, 0.7853981633974512766 ) ;
#4 = CIRCLE ( 'NONE', #138, 2.453999999999997517 ) ;
#5 = DIRECTION ( 'NONE',  ( -3.491481338843133355E-15, 1.224646799147353207E-16, -1.000000000000000000 ) ) ;
#6 = CARTESIAN_POINT ( 'NONE',  ( 7.681258945454893382E-14, 1.840205253326098540E-32, 22.00000000000000000 ) ) ;
#7 = DIRECTION ( 'NONE',  ( 4.275831445896958607E-31, 1.000000000000000000, 1.224646799147353454E-16 ) ) ;
#8 = LOCAL_TIME ( 15, 23, 6.000000000000000000, #33 ) ;
#9 = DIRECTION ( 'NONE',  ( 4.275831445896959482E-31, 1.000000000000000000, 1.224646799147353454E-16 ) ) ;
#10 = VERTEX_POINT ( 'NONE', #213 ) ;
#11 = DATE_AND_TIME ( #104, #8 ) ;
#12 = CC_DESIGN_PERSON_AND_ORGANIZATION_ASSIGNMENT ( #34, #196, ( #43 ) ) ;
#13 = LOCAL_TIME ( 15, 23, 6.000000000000000000, #192 ) ;
#14 = PERSON_AND_ORGANIZATION ( #100, #54 ) ;
#15 =( GEOMETRIC_REPRESENTATION_CONTEXT ( 3 ) GLOBAL_UNCERTAINTY_ASSIGNED_CONTEXT ( ( #162 ) ) GLOBAL_UNIT_ASSIGNED_CONTEXT ( ( #160, #235, #191 ) ) REPRESENTATION_CONTEXT ( 'NONE', 'WORKASPACE' ) );
#16 = EDGE_LOOP ( 'NONE', ( #128 ) ) ;
#17 = PERSON_AND_ORGANIZATION ( #100, #54 ) ;
#18 = ORIENTED_EDGE ( 'NONE', *, *, #127, .T. ) ;
#19 = AXIS2_PLACEMENT_3D ( 'NONE', #60, #132, #226 ) ;
#20 = DIRECTION ( 'NONE',  ( -3.491481338843133355E-15, 1.224646799147353207E-16, -1.000000000000000000 ) ) ;
#21 = CARTESIAN_POINT ( 'NONE',  ( 7.681258945454893382E-14, 1.840205253326098540E-32, 22.00000000000000000 ) ) ;
#22 = FACE_OUTER_BOUND ( 'NONE', #129, .T. ) ;
#23 = CARTESIAN_POINT ( 'NONE',  ( 2.199633243471174140E-13, -7.715274834628325378E-15, 63.00000000000000000 ) ) ;
#24 = AXIS2_PLACEMENT_3D ( 'NONE', #26, #47, #9 ) ;
#25 = CIRCLE ( 'NONE', #58, 2.154000000000000359 ) ;
#26 = CARTESIAN_POINT ( 'NONE',  ( 0.0000000000000000000, 0.0000000000000000000, 0.0000000000000000000 ) ) ;
#27 = EDGE_CURVE ( 'NONE', #10, #10, #99, .T. ) ;
#28 = CARTESIAN_POINT ( 'NONE',  ( 7.681258945454893382E-14, 2.454000000000001513, 22.00000000000000000 ) ) ;
#29 = DATE_AND_TIME ( #236, #62 ) ;
#30 = CARTESIAN_POINT ( 'NONE',  ( 2.199633243471174140E-13, 1.599999999999992317, 63.00000000000000000 ) ) ;
#31 = PERSON_AND_ORGANIZATION ( #100, #54 ) ;
#32 = EDGE_CURVE ( 'NONE', #233, #233, #4, .T. ) ;
#33 = COORDINATED_UNIVERSAL_TIME_OFFSET ( 1, 0, .AHEAD. ) ;
#34 = PERSON_AND_ORGANIZATION ( #100, #54 ) ;
#35 = AXIS2_PLACEMENT_3D ( 'NONE', #41, #97, #172 ) ;
#36 = FACE_BOUND ( 'NONE', #106, .T. ) ;
#37 = VERTEX_POINT ( 'NONE', #155 ) ;
#38 = ORIENTED_EDGE ( 'NONE', *, *, #117, .T. ) ;
#39 = FACE_BOUND ( 'NONE', #88, .T. ) ;
#40 = PLANE ( 'NONE',  #81 ) ;
#41 = CARTESIAN_POINT ( 'NONE',  ( -4.605070467231025307E-31, 1.615241285926821268E-32, -1.318944602681699812E-16 ) ) ;
#42 = AXIS2_PLACEMENT_3D ( 'NONE', #21, #145, #133 ) ;
#43 = PRODUCT_DEFINITION_FORMATION_WITH_SPECIFIED_SOURCE ( 'ANY', '', #124, .NOT_KNOWN. ) ;
#44 = DIRECTION ( 'NONE',  ( 0.0000000000000000000, 1.000000000000000000, 0.0000000000000000000 ) ) ;
#45 = APPROVAL ( #193, 'UNSPECIFIED' ) ;
#46 = APPROVAL_STATUS ( 'not_yet_approved' ) ;
#47 = DIRECTION ( 'NONE',  ( -3.491481338843133355E-15, 1.224646799147353207E-16, -1.000000000000000000 ) ) ;
#48 = AXIS2_PLACEMENT_3D ( 'NONE', #76, #149, #169 ) ;
#49 = SECURITY_CLASSIFICATION ( '', '', #216 ) ;
#50 = CLOSED_SHELL ( 'NONE', ( #219, #113, #241, #227, #161 ) ) ;
#51 = ADVANCED_FACE ( 'NONE', ( #187 ), #188, .F. ) ;
#52 = ORIENTED_EDGE ( 'NONE', *, *, #27, .F. ) ;
#53 = FACE_OUTER_BOUND ( 'NONE', #144, .T. ) ;
#54 = ORGANIZATION ( 'UNSPECIFIED', 'UNSPECIFIED', '' ) ;
#55 = EDGE_LOOP ( 'NONE', ( #125 ) ) ;
#56 = PRODUCT_DEFINITION ( 'UNKNOWN', '', #43, #68 ) ;
#57 = CARTESIAN_POINT ( 'NONE',  ( 2.199633243471174140E-13, -7.715274834628325378E-15, 63.00000000000000000 ) ) ;
#58 = AXIS2_PLACEMENT_3D ( 'NONE', #228, #5, #7 ) ;
#59 = FACE_OUTER_BOUND ( 'NONE', #110, .T. ) ;
#60 = CARTESIAN_POINT ( 'NONE',  ( 0.0000000000000000000, 0.0000000000000000000, 0.0000000000000000000 ) ) ;
#61 = FACE_OUTER_BOUND ( 'NONE', #164, .T. ) ;
#62 = LOCAL_TIME ( 15, 23, 6.000000000000000000, #174 ) ;
#63 = DIRECTION ( 'NONE',  ( -4.275831445896958607E-31, -1.000000000000000000, -1.224646799147353207E-16 ) ) ;
#64 = PERSON_AND_ORGANIZATION ( #100, #54 ) ;
#65 = CALENDAR_DATE ( 2021, 30, 11 ) ;
#66 = CARTESIAN_POINT ( 'NONE',  ( 7.681258945454893382E-14, -2.694222958124176809E-15, 22.00000000000000000 ) ) ;
#67 = CC_DESIGN_SECURITY_CLASSIFICATION ( #49, ( #43 ) ) ;
#68 = DESIGN_CONTEXT ( 'detailed design', #91, 'design' ) ;
#69 = APPROVAL ( #89, 'UNSPECIFIED' ) ;
#70 = ORIENTED_EDGE ( 'NONE', *, *, #156, .F. ) ;
#71 = DIRECTION ( 'NONE',  ( 0.0000000000000000000, 0.0000000000000000000, 1.000000000000000000 ) ) ;
#72 = ORIENTED_EDGE ( 'NONE', *, *, #32, .F. ) ;
#73 = COORDINATED_UNIVERSAL_TIME_OFFSET ( 1, 0, .AHEAD. ) ;
#74 = APPROVAL_PERSON_ORGANIZATION ( #17, #69, #163 ) ;
#75 = FACE_OUTER_BOUND ( 'NONE', #243, .T. ) ;
#76 = CARTESIAN_POINT ( 'NONE',  ( 2.199633243471174140E-13, 1.199807826129474591E-32, 63.00000000000000000 ) ) ;
#77 = CONICAL_SURFACE ( 'NONE', #212, 2.453999999999997517, 0.7853981633974432830 ) ;
#78 = DIRECTION ( 'NONE',  ( 0.0000000000000000000, 1.000000000000000000, 0.0000000000000000000 ) ) ;
#79 = FACE_OUTER_BOUND ( 'NONE', #16, .T. ) ;
#80 = DIRECTION ( 'NONE',  ( 0.0000000000000000000, 1.000000000000000000, 0.0000000000000000000 ) ) ;
#81 = AXIS2_PLACEMENT_3D ( 'NONE', #6, #146, #63 ) ;
#82 = APPROVAL_PERSON_ORGANIZATION ( #231, #45, #86 ) ;
#83 = CYLINDRICAL_SURFACE ( 'NONE', #24, 1.999999999999997335 ) ;
#84 = LOCAL_TIME ( 15, 23, 6.000000000000000000, #230 ) ;
#85 = DIRECTION ( 'NONE',  ( 0.0000000000000000000, 1.000000000000000000, 0.0000000000000000000 ) ) ;
#86 = APPROVAL_ROLE ( '' ) ;
#87 = DATE_TIME_ROLE ( 'classification_date' ) ;
#88 = EDGE_LOOP ( 'NONE', ( #220 ) ) ;
#89 = APPROVAL_STATUS ( 'not_yet_approved' ) ;
#90 = ORIENTED_EDGE ( 'NONE', *, *, #93, .F. ) ;
#91 = APPLICATION_CONTEXT ( 'configuration controlled 3d designs of mechanical parts and assemblies' ) ;
#92 = DIRECTION ( 'NONE',  ( -3.491481338843133355E-15, 1.224646799147353207E-16, -1.000000000000000000 ) ) ;
#93 = EDGE_CURVE ( 'NONE', #194, #194, #218, .T. ) ;
#94 = CYLINDRICAL_SURFACE ( 'NONE', #19, 2.454000000000000625 ) ;
#95 = CIRCLE ( 'NONE', #154, 1.600000000000000089 ) ;
#96 = CARTESIAN_POINT ( 'NONE',  ( 7.955811952948891279E-14, -2.790523189800400491E-15, 22.78635106663628562 ) ) ;
#97 = DIRECTION ( 'NONE',  ( 3.491481338843133355E-15, -1.224646799147353207E-16, 1.000000000000000000 ) ) ;
#98 = CARTESIAN_POINT ( 'NONE',  ( 1.047444401652938823E-15, -3.673940397442055800E-17, 0.2999999999999996558 ) ) ;
#99 = CIRCLE ( 'NONE', #107, 2.454000000000003734 ) ;
#100 = PERSON ( 'UNSPECIFIED', 'UNSPECIFIED', 'UNSPECIFIED', ('UNSPECIFIED'), ('UNSPECIFIED'), ('UNSPECIFIED') ) ;
#101 = VERTEX_POINT ( 'NONE', #28 ) ;
#102 = CALENDAR_DATE ( 2021, 30, 11 ) ;
#103 = PERSON_AND_ORGANIZATION ( #100, #54 ) ;
#104 = CALENDAR_DATE ( 2021, 30, 11 ) ;
#105 = MANIFOLD_SOLID_BREP ( 'Corps-Déplacer/Copier1[1]', #50 ) ;
#106 = EDGE_LOOP ( 'NONE', ( #202 ) ) ;
#107 = AXIS2_PLACEMENT_3D ( 'NONE', #118, #116, #78 ) ;
#108 = AXIS2_PLACEMENT_3D ( 'NONE', #190, #207, #170 ) ;
#109 = FACE_OUTER_BOUND ( 'NONE', #55, .T. ) ;
#110 = EDGE_LOOP ( 'NONE', ( #72 ) ) ;
#111 = EDGE_LOOP ( 'NONE', ( #181 ) ) ;
#112 = DIRECTION ( 'NONE',  ( -3.491481338843133355E-15, 1.224646799147353207E-16, -1.000000000000000000 ) ) ;
#113 = ADVANCED_FACE ( 'NONE', ( #22, #39 ), #203, .T. ) ;
#114 = FACE_OUTER_BOUND ( 'NONE', #223, .T. ) ;
#115 = CC_DESIGN_APPROVAL ( #232, ( #56 ) ) ;
#116 = DIRECTION ( 'NONE',  ( -3.491481338843133355E-15, 1.224646799147353207E-16, -1.000000000000000000 ) ) ;
#117 = EDGE_CURVE ( 'NONE', #141, #141, #25, .T. ) ;
#118 = CARTESIAN_POINT ( 'NONE',  ( 7.681258945454893382E-14, -2.694222958124176809E-15, 22.00000000000000000 ) ) ;
#119 = DIRECTION ( 'NONE',  ( -3.924062641375790331E-31, -1.000000000000000000, -1.325430528710886972E-16 ) ) ;
#120 = PERSON_AND_ORGANIZATION_ROLE ( 'creator' ) ;
#121 = CARTESIAN_POINT ( 'NONE',  ( 0.0000000000000000000, 2.154000000000000359, 0.0000000000000000000 ) ) ;
#122 = APPROVAL_DATE_TIME ( #195, #69 ) ;
#123 = DIRECTION ( 'NONE',  ( -3.491481338843133355E-15, 1.224646799147353207E-16, -1.000000000000000000 ) ) ;
#124 = PRODUCT ( '969445', '969445', '', ( #151 ) ) ;
#125 = ORIENTED_EDGE ( 'NONE', *, *, #156, .T. ) ;
#126 = CARTESIAN_POINT ( 'NONE',  ( 7.955811952948891279E-14, 1.999999999999992228, 22.78635106663628562 ) ) ;
#127 = EDGE_CURVE ( 'NONE', #200, #200, #95, .T. ) ;
#128 = ORIENTED_EDGE ( 'NONE', *, *, #27, .T. ) ;
#129 = EDGE_LOOP ( 'NONE', ( #239 ) ) ;
#130 = CC_DESIGN_DATE_AND_TIME_ASSIGNMENT ( #215, #240, ( #56 ) ) ;
#131 = CARTESIAN_POINT ( 'NONE',  ( 2.185667318115801607E-13, -7.666288962662431950E-15, 62.60000000000000142 ) ) ;
#132 = DIRECTION ( 'NONE',  ( -3.491481338843133355E-15, 1.224646799147353207E-16, -1.000000000000000000 ) ) ;
#133 = DIRECTION ( 'NONE',  ( -4.275831445896958607E-31, -1.000000000000000000, -1.224646799147353207E-16 ) ) ;
#134 = DIRECTION ( 'NONE',  ( -3.491481338843133355E-15, 1.224646799147353207E-16, -1.000000000000000000 ) ) ;
#135 = PERSON_AND_ORGANIZATION_ROLE ( 'design_owner' ) ;
#136 = APPROVAL_DATE_TIME ( #139, #232 ) ;
#137 = AXIS2_PLACEMENT_3D ( 'NONE', #66, #123, #85 ) ;
#138 = AXIS2_PLACEMENT_3D ( 'NONE', #98, #209, #225 ) ;
#139 = DATE_AND_TIME ( #65, #84 ) ;
#140 = PERSON_AND_ORGANIZATION_ROLE ( 'design_supplier' ) ;
#141 = VERTEX_POINT ( 'NONE', #121 ) ;
#142 = EDGE_LOOP ( 'NONE', ( #18 ) ) ;
#143 = CARTESIAN_POINT ( 'NONE',  ( 1.047444401652939612E-15, 2.453999999999997517, 0.2999999999999999889 ) ) ;
#144 = EDGE_LOOP ( 'NONE', ( #90 ) ) ;
#145 = DIRECTION ( 'NONE',  ( 3.491481338843133355E-15, -1.224646799147353207E-16, 1.000000000000000000 ) ) ;
#146 = DIRECTION ( 'NONE',  ( 3.491481338843133355E-15, -1.224646799147353207E-16, 1.000000000000000000 ) ) ;
#147 = DIRECTION ( 'NONE',  ( 0.0000000000000000000, 1.000000000000000000, 0.0000000000000000000 ) ) ;
#148 = CARTESIAN_POINT ( 'NONE',  ( 1.047444401652938823E-15, -3.673940397442055800E-17, 0.2999999999999996558 ) ) ;
#149 = DIRECTION ( 'NONE',  ( -3.491481338843133355E-15, 1.224646799147353207E-16, -1.000000000000000000 ) ) ;
#150 = DIRECTION ( 'NONE',  ( 1.000000000000000000, 0.0000000000000000000, 0.0000000000000000000 ) ) ;
#151 = MECHANICAL_CONTEXT ( 'NONE', #217, 'mechanical' ) ;
#152 = PERSON_AND_ORGANIZATION ( #100, #54 ) ;
#153 = AXIS2_PLACEMENT_3D ( 'NONE', #238, #71, #150 ) ;
#154 = AXIS2_PLACEMENT_3D ( 'NONE', #23, #112, #80 ) ;
#155 = CARTESIAN_POINT ( 'NONE',  ( 2.185667318115801607E-13, 1.999999999999992228, 62.60000000000000142 ) ) ;
#156 = EDGE_CURVE ( 'NONE', #37, #37, #211, .T. ) ;
#157 = APPROVAL_DATE_TIME ( #11, #45 ) ;
#158 = SHAPE_DEFINITION_REPRESENTATION ( #176, #175 ) ;
#159 = EDGE_LOOP ( 'NONE', ( #177 ) ) ;
#160 =( LENGTH_UNIT ( ) NAMED_UNIT ( * ) SI_UNIT ( .MILLI., .METRE. ) );
#161 = ADVANCED_FACE ( 'NONE', ( #2 ), #168, .F. ) ;
#162 = UNCERTAINTY_MEASURE_WITH_UNIT (LENGTH_MEASURE( 1.000000000000000082E-05 ), #160, 'distance_accuracy_value', 'NONE');
#163 = APPROVAL_ROLE ( '' ) ;
#164 = EDGE_LOOP ( 'NONE', ( #70 ) ) ;
#165 = AXIS2_PLACEMENT_3D ( 'NONE', #57, #134, #44 ) ;
#166 = EDGE_LOOP ( 'NONE', ( #38 ) ) ;
#167 = DIRECTION ( 'NONE',  ( 0.0000000000000000000, 1.000000000000000000, 0.0000000000000000000 ) ) ;
#168 = PLANE ( 'NONE',  #48 ) ;
#169 = DIRECTION ( 'NONE',  ( 4.275831445896958607E-31, 1.000000000000000000, 1.224646799147353207E-16 ) ) ;
#170 = DIRECTION ( 'NONE',  ( 0.0000000000000000000, 1.000000000000000000, 0.0000000000000000000 ) ) ;
#171 = CC_DESIGN_APPROVAL ( #45, ( #49 ) ) ;
#172 = DIRECTION ( 'NONE',  ( -4.275831445896958607E-31, -1.000000000000000000, -1.224646799147353207E-16 ) ) ;
#173 = CC_DESIGN_PERSON_AND_ORGANIZATION_ASSIGNMENT ( #64, #135, ( #124 ) ) ;
#174 = COORDINATED_UNIVERSAL_TIME_OFFSET ( 1, 0, .AHEAD. ) ;
#175 = ADVANCED_BREP_SHAPE_REPRESENTATION ( '969445', ( #105, #183, #153 ), #15 ) ;
#176 = PRODUCT_DEFINITION_SHAPE ( 'NONE', 'NONE',  #56 ) ;
#177 = ORIENTED_EDGE ( 'NONE', *, *, #237, .T. ) ;
#178 = CLOSED_SHELL ( 'NONE', ( #51, #1, #208, #205 ) ) ;
#179 = CALENDAR_DATE ( 2021, 30, 11 ) ;
#180 = CC_DESIGN_PERSON_AND_ORGANIZATION_ASSIGNMENT ( #14, #234, ( #49 ) ) ;
#181 = ORIENTED_EDGE ( 'NONE', *, *, #127, .F. ) ;
#182 = CIRCLE ( 'NONE', #137, 2.454000000000003734 ) ;
#183 = MANIFOLD_SOLID_BREP ( 'Corps-Déplacer/Copier1[2]', #178 ) ;
#184 = DIRECTION ( 'NONE',  ( 3.491481338843133355E-15, -1.224646799147353207E-16, 1.000000000000000000 ) ) ;
#185 = PLANE ( 'NONE',  #42 ) ;
#186 = APPROVAL_PERSON_ORGANIZATION ( #103, #232, #221 ) ;
#187 = FACE_OUTER_BOUND ( 'NONE', #166, .T. ) ;
#188 = PLANE ( 'NONE',  #35 ) ;
#189 = CC_DESIGN_DATE_AND_TIME_ASSIGNMENT ( #29, #87, ( #49 ) ) ;
#190 = CARTESIAN_POINT ( 'NONE',  ( 7.955811952948891279E-14, -2.790523189800400491E-15, 22.78635106663628562 ) ) ;
#191 =( NAMED_UNIT ( * ) SI_UNIT ( $, .STERADIAN. ) SOLID_ANGLE_UNIT ( ) );
#192 = COORDINATED_UNIVERSAL_TIME_OFFSET ( 1, 0, .AHEAD. ) ;
#193 = APPROVAL_STATUS ( 'not_yet_approved' ) ;
#194 = VERTEX_POINT ( 'NONE', #126 ) ;
#195 = DATE_AND_TIME ( #179, #206 ) ;
#196 = PERSON_AND_ORGANIZATION_ROLE ( 'creator' ) ;
#197 = PRODUCT_RELATED_PRODUCT_CATEGORY ( 'detail', '', ( #124 ) ) ;
#198 = AXIS2_PLACEMENT_3D ( 'NONE', #131, #92, #147 ) ;
#199 = ORIENTED_EDGE ( 'NONE', *, *, #32, .T. ) ;
#200 = VERTEX_POINT ( 'NONE', #30 ) ;
#201 = CC_DESIGN_PERSON_AND_ORGANIZATION_ASSIGNMENT ( #31, #140, ( #43 ) ) ;
#202 = ORIENTED_EDGE ( 'NONE', *, *, #117, .F. ) ;
#203 = CONICAL_SURFACE ( 'NONE', #108, 1.999999999999994893, 0.5235987755982978165 ) ;
#204 = FACE_OUTER_BOUND ( 'NONE', #159, .T. ) ;
#205 = ADVANCED_FACE ( 'NONE', ( #75 ), #40, .T. ) ;
#206 = LOCAL_TIME ( 15, 23, 6.000000000000000000, #73 ) ;
#207 = DIRECTION ( 'NONE',  ( -3.491481338843133355E-15, 1.224646799147353207E-16, -1.000000000000000000 ) ) ;
#208 = ADVANCED_FACE ( 'NONE', ( #59, #79 ), #94, .T. ) ;
#209 = DIRECTION ( 'NONE',  ( -3.491481338843133355E-15, 1.224646799147353207E-16, -1.000000000000000000 ) ) ;
#210 = APPLICATION_PROTOCOL_DEFINITION ( 'international standard', 'config_control_design', 1994, #91 ) ;
#211 = CIRCLE ( 'NONE', #198, 2.000000000000000000 ) ;
#212 = AXIS2_PLACEMENT_3D ( 'NONE', #148, #184, #119 ) ;
#213 = CARTESIAN_POINT ( 'NONE',  ( 7.681258945454893382E-14, 2.454000000000001513, 22.00000000000000000 ) ) ;
#214 = AXIS2_PLACEMENT_3D ( 'NONE', #96, #20, #167 ) ;
#215 = DATE_AND_TIME ( #102, #13 ) ;
#216 = SECURITY_CLASSIFICATION_LEVEL ( 'unclassified' ) ;
#217 = APPLICATION_CONTEXT ( 'configuration controlled 3d designs of mechanical parts and assemblies' ) ;
#218 = CIRCLE ( 'NONE', #214, 1.999999999999994893 ) ;
#219 = ADVANCED_FACE ( 'NONE', ( #204 ), #185, .F. ) ;
#220 = ORIENTED_EDGE ( 'NONE', *, *, #93, .T. ) ;
#221 = APPROVAL_ROLE ( '' ) ;
#222 = CC_DESIGN_PERSON_AND_ORGANIZATION_ASSIGNMENT ( #152, #120, ( #56 ) ) ;
#223 = EDGE_LOOP ( 'NONE', ( #199 ) ) ;
#224 = FACE_BOUND ( 'NONE', #142, .T. ) ;
#225 = DIRECTION ( 'NONE',  ( 3.924062641375790331E-31, 1.000000000000000000, 1.325430528710886972E-16 ) ) ;
#226 = DIRECTION ( 'NONE',  ( 4.275831445896958607E-31, 1.000000000000000000, 1.224646799147353207E-16 ) ) ;
#227 = ADVANCED_FACE ( 'NONE', ( #61, #224 ), #3, .T. ) ;
#228 = CARTESIAN_POINT ( 'NONE',  ( -9.210140934462050615E-31, 3.230482571853642535E-32, -2.637889205363399623E-16 ) ) ;
#229 = APPLICATION_PROTOCOL_DEFINITION ( 'international standard', 'config_control_design', 1994, #217 ) ;
#230 = COORDINATED_UNIVERSAL_TIME_OFFSET ( 1, 0, .AHEAD. ) ;
#231 = PERSON_AND_ORGANIZATION ( #100, #54 ) ;
#232 = APPROVAL ( #46, 'UNSPECIFIED' ) ;
#233 = VERTEX_POINT ( 'NONE', #143 ) ;
#234 = PERSON_AND_ORGANIZATION_ROLE ( 'classification_officer' ) ;
#235 =( NAMED_UNIT ( * ) PLANE_ANGLE_UNIT ( ) SI_UNIT ( $, .RADIAN. ) );
#236 = CALENDAR_DATE ( 2021, 30, 11 ) ;
#237 = EDGE_CURVE ( 'NONE', #101, #101, #182, .T. ) ;
#238 = CARTESIAN_POINT ( 'NONE',  ( 0.0000000000000000000, 0.0000000000000000000, 0.0000000000000000000 ) ) ;
#239 = ORIENTED_EDGE ( 'NONE', *, *, #237, .F. ) ;
#240 = DATE_TIME_ROLE ( 'creation_date' ) ;
#241 = ADVANCED_FACE ( 'NONE', ( #53, #109 ), #83, .T. ) ;
#242 = CC_DESIGN_APPROVAL ( #69, ( #43 ) ) ;
#243 = EDGE_LOOP ( 'NONE', ( #52 ) ) ;
ENDSEC;
END-ISO-10303-21;
