ISO-10303-21;
HEADER;
FILE_DESCRIPTION (( 'STEP AP203' ),
    '1' );
FILE_NAME ('969444.step',
    '2021-11-30T14:23:06',
    ( '' ),
    ( '' ),
    'SwSTEP 2.0',
    'SolidWorks 2019',
    '' );
FILE_SCHEMA (( 'CONFIG_CONTROL_DESIGN' ));
ENDSEC;

DATA;
#1 = APPROVAL_PERSON_ORGANIZATION ( #60, #190, #42 ) ;
#2 = DATE_TIME_ROLE ( 'creation_date' ) ;
#3 = COORDINATED_UNIVERSAL_TIME_OFFSET ( 1, 0, .AHEAD. ) ;
#4 = CONICAL_SURFACE ( 'NONE', #148, 1.999999999999994893, 0.5235987755982910441 ) ;
#5 = VERTEX_POINT ( 'NONE', #7 ) ;
#6 = CC_DESIGN_PERSON_AND_ORGANIZATION_ASSIGNMENT ( #139, #100, ( #77 ) ) ;
#7 = CARTESIAN_POINT ( 'NONE',  ( 7.681258945454892119E-14, 2.403999999999996362, 21.99999999999999645 ) ) ;
#8 = DIRECTION ( 'NONE',  ( 4.275831445896959482E-31, 1.000000000000000000, 1.224646799147353454E-16 ) ) ;
#9 = CARTESIAN_POINT ( 'NONE',  ( 2.185667318115801607E-13, -7.666288962662431950E-15, 62.60000000000000142 ) ) ;
#10 = PRODUCT_DEFINITION_FORMATION_WITH_SPECIFIED_SOURCE ( 'ANY', '', #77, .NOT_KNOWN. ) ;
#11 = EDGE_CURVE ( 'NONE', #5, #5, #99, .T. ) ;
#12 = DATE_TIME_ROLE ( 'classification_date' ) ;
#13 = ORIENTED_EDGE ( 'NONE', *, *, #11, .T. ) ;
#14 = DIRECTION ( 'NONE',  ( -3.491481338843133355E-15, 1.224646799147353207E-16, -1.000000000000000000 ) ) ;
#15 = AXIS2_PLACEMENT_3D ( 'NONE', #40, #39, #197 ) ;
#16 = EDGE_LOOP ( 'NONE', ( #36 ) ) ;
#17 = CARTESIAN_POINT ( 'NONE',  ( -8.996349362167203473E-31, 3.155494582720549655E-32, -2.576656865406031852E-16 ) ) ;
#18 = CONICAL_SURFACE ( 'NONE', #50, 1.600000000000000089, 0.7853981633974512766 ) ;
#19 = CC_DESIGN_PERSON_AND_ORGANIZATION_ASSIGNMENT ( #89, #28, ( #10 ) ) ;
#20 = PRODUCT_DEFINITION_SHAPE ( 'NONE', 'NONE',  #212 ) ;
#21 = VERTEX_POINT ( 'NONE', #57 ) ;
#22 = VERTEX_POINT ( 'NONE', #176 ) ;
#23 = DATE_AND_TIME ( #80, #200 ) ;
#24 = CALENDAR_DATE ( 2021, 30, 11 ) ;
#25 = FACE_BOUND ( 'NONE', #192, .T. ) ;
#26 = CC_DESIGN_APPROVAL ( #90, ( #187 ) ) ;
#27 = DIRECTION ( 'NONE',  ( 0.0000000000000000000, 1.000000000000000000, 0.0000000000000000000 ) ) ;
#28 = PERSON_AND_ORGANIZATION_ROLE ( 'design_supplier' ) ;
#29 = PLANE ( 'NONE',  #61 ) ;
#30 = DIRECTION ( 'NONE',  ( -3.491481338843133355E-15, 1.224646799147353207E-16, -1.000000000000000000 ) ) ;
#31 = AXIS2_PLACEMENT_3D ( 'NONE', #160, #144, #8 ) ;
#32 = EDGE_CURVE ( 'NONE', #218, #218, #132, .T. ) ;
#33 = CALENDAR_DATE ( 2021, 30, 11 ) ;
#34 = CARTESIAN_POINT ( 'NONE',  ( 1.047444401652939021E-15, -3.673940397442056417E-17, 0.2999999999999997113 ) ) ;
#35 = CLOSED_SHELL ( 'NONE', ( #134, #59, #56, #72 ) ) ;
#36 = ORIENTED_EDGE ( 'NONE', *, *, #146, .F. ) ;
#37 = ORIENTED_EDGE ( 'NONE', *, *, #194, .T. ) ;
#38 = CONICAL_SURFACE ( 'NONE', #138, 2.403999999999997250, 0.7853981633974431720 ) ;
#39 = DIRECTION ( 'NONE',  ( 0.0000000000000000000, 0.0000000000000000000, 1.000000000000000000 ) ) ;
#40 = CARTESIAN_POINT ( 'NONE',  ( 0.0000000000000000000, 0.0000000000000000000, 0.0000000000000000000 ) ) ;
#41 = APPROVAL_PERSON_ORGANIZATION ( #243, #115, #213 ) ;
#42 = APPROVAL_ROLE ( '' ) ;
#43 = DIRECTION ( 'NONE',  ( -3.491481338843133355E-15, 1.224646799147353207E-16, -1.000000000000000000 ) ) ;
#44 = FACE_OUTER_BOUND ( 'NONE', #167, .T. ) ;
#45 = SECURITY_CLASSIFICATION_LEVEL ( 'unclassified' ) ;
#46 = DIRECTION ( 'NONE',  ( -3.491481338843133355E-15, 1.224646799147353207E-16, -1.000000000000000000 ) ) ;
#47 = COORDINATED_UNIVERSAL_TIME_OFFSET ( 1, 0, .AHEAD. ) ;
#48 = DIRECTION ( 'NONE',  ( -4.275831445896958607E-31, -1.000000000000000000, -1.224646799147353207E-16 ) ) ;
#49 = CARTESIAN_POINT ( 'NONE',  ( 2.199633243471174140E-13, -7.715274834628325378E-15, 63.00000000000000000 ) ) ;
#50 = AXIS2_PLACEMENT_3D ( 'NONE', #145, #43, #120 ) ;
#51 = DIRECTION ( 'NONE',  ( 4.275831445896957731E-31, 1.000000000000000000, 1.224646799147353207E-16 ) ) ;
#52 = ORIENTED_EDGE ( 'NONE', *, *, #101, .F. ) ;
#53 = EDGE_CURVE ( 'NONE', #21, #21, #63, .T. ) ;
#54 = EDGE_LOOP ( 'NONE', ( #151 ) ) ;
#55 = PERSON ( 'UNSPECIFIED', 'UNSPECIFIED', 'UNSPECIFIED', ('UNSPECIFIED'), ('UNSPECIFIED'), ('UNSPECIFIED') ) ;
#56 = ADVANCED_FACE ( 'NONE', ( #92, #239 ), #73, .T. ) ;
#57 = CARTESIAN_POINT ( 'NONE',  ( 1.047444401652939809E-15, 2.403999999999997250, 0.2999999999999999889 ) ) ;
#58 = ORGANIZATION ( 'UNSPECIFIED', 'UNSPECIFIED', '' ) ;
#59 = ADVANCED_FACE ( 'NONE', ( #83, #221 ), #38, .T. ) ;
#60 = PERSON_AND_ORGANIZATION ( #55, #58 ) ;
#61 = AXIS2_PLACEMENT_3D ( 'NONE', #105, #30, #107 ) ;
#62 = ADVANCED_FACE ( 'NONE', ( #232, #103 ), #159, .T. ) ;
#63 = CIRCLE ( 'NONE', #205, 2.403999999999997250 ) ;
#64 = MANIFOLD_SOLID_BREP ( 'Corps-Déplacer/Copier1[1]', #66 ) ;
#65 = CARTESIAN_POINT ( 'NONE',  ( 7.681258945454893382E-14, 1.802711258759548269E-32, 22.00000000000000000 ) ) ;
#66 = CLOSED_SHELL ( 'NONE', ( #129, #230, #62, #215, #76 ) ) ;
#67 = DIRECTION ( 'NONE',  ( 0.0000000000000000000, 1.000000000000000000, 0.0000000000000000000 ) ) ;
#68 = DIRECTION ( 'NONE',  ( 3.491481338843133355E-15, -1.224646799147353207E-16, 1.000000000000000000 ) ) ;
#69 = FACE_OUTER_BOUND ( 'NONE', #226, .T. ) ;
#70 = ORIENTED_EDGE ( 'NONE', *, *, #101, .T. ) ;
#71 = AXIS2_PLACEMENT_3D ( 'NONE', #65, #123, #216 ) ;
#72 = ADVANCED_FACE ( 'NONE', ( #84 ), #220, .T. ) ;
#73 = CYLINDRICAL_SURFACE ( 'NONE', #114, 2.403999999999998138 ) ;
#74 = EDGE_LOOP ( 'NONE', ( #70 ) ) ;
#75 = ORIENTED_EDGE ( 'NONE', *, *, #146, .T. ) ;
#76 = ADVANCED_FACE ( 'NONE', ( #142 ), #29, .F. ) ;
#77 = PRODUCT ( '969444', '969444', '', ( #196 ) ) ;
#78 = VERTEX_POINT ( 'NONE', #116 ) ;
#79 = VERTEX_POINT ( 'NONE', #211 ) ;
#80 = CALENDAR_DATE ( 2021, 30, 11 ) ;
#81 = CALENDAR_DATE ( 2021, 30, 11 ) ;
#82 = AXIS2_PLACEMENT_3D ( 'NONE', #158, #46, #203 ) ;
#83 = FACE_BOUND ( 'NONE', #193, .T. ) ;
#84 = FACE_OUTER_BOUND ( 'NONE', #54, .T. ) ;
#85 = PERSON_AND_ORGANIZATION_ROLE ( 'classification_officer' ) ;
#86 = DIRECTION ( 'NONE',  ( 3.491481338843133355E-15, -1.224646799147353207E-16, 1.000000000000000000 ) ) ;
#87 = APPROVAL_DATE_TIME ( #186, #115 ) ;
#88 = FACE_BOUND ( 'NONE', #74, .T. ) ;
#89 = PERSON_AND_ORGANIZATION ( #55, #58 ) ;
#90 = APPROVAL ( #110, 'UNSPECIFIED' ) ;
#91 = DIRECTION ( 'NONE',  ( -3.491481338843133355E-15, 1.224646799147353207E-16, -1.000000000000000000 ) ) ;
#92 = FACE_OUTER_BOUND ( 'NONE', #206, .T. ) ;
#93 = ORIENTED_EDGE ( 'NONE', *, *, #32, .F. ) ;
#94 = DIRECTION ( 'NONE',  ( 4.005677920938515409E-31, 1.000000000000000000, 1.127498099506557571E-16 ) ) ;
#95 = CIRCLE ( 'NONE', #82, 2.403999999999999027 ) ;
#96 = CARTESIAN_POINT ( 'NONE',  ( -1.710569414459005214E-46, 2.104000000000000536, 0.0000000000000000000 ) ) ;
#97 = PRODUCT_RELATED_PRODUCT_CATEGORY ( 'detail', '', ( #77 ) ) ;
#98 = APPROVAL_STATUS ( 'not_yet_approved' ) ;
#99 = CIRCLE ( 'NONE', #233, 2.403999999999999027 ) ;
#100 = PERSON_AND_ORGANIZATION_ROLE ( 'design_owner' ) ;
#101 = EDGE_CURVE ( 'NONE', #78, #78, #210, .T. ) ;
#102 = AXIS2_PLACEMENT_3D ( 'NONE', #185, #202, #67 ) ;
#103 = FACE_OUTER_BOUND ( 'NONE', #147, .T. ) ;
#104 = LOCAL_TIME ( 15, 23, 6.000000000000000000, #229 ) ;
#105 = CARTESIAN_POINT ( 'NONE',  ( 2.199633243471174140E-13, 1.199807826129474591E-32, 63.00000000000000000 ) ) ;
#106 = PERSON_AND_ORGANIZATION ( #55, #58 ) ;
#107 = DIRECTION ( 'NONE',  ( 4.275831445896958607E-31, 1.000000000000000000, 1.224646799147353207E-16 ) ) ;
#108 = AXIS2_PLACEMENT_3D ( 'NONE', #49, #126, #183 ) ;
#109 = DIRECTION ( 'NONE',  ( 3.491481338843133355E-15, -1.224646799147353207E-16, 1.000000000000000000 ) ) ;
#110 = APPROVAL_STATUS ( 'not_yet_approved' ) ;
#111 = DIRECTION ( 'NONE',  ( -3.491481338843133355E-15, 1.224646799147353207E-16, -1.000000000000000000 ) ) ;
#112 = LOCAL_TIME ( 15, 23, 6.000000000000000000, #47 ) ;
#113 = EDGE_LOOP ( 'NONE', ( #52 ) ) ;
#114 = AXIS2_PLACEMENT_3D ( 'NONE', #209, #130, #153 ) ;
#115 = APPROVAL ( #136, 'UNSPECIFIED' ) ;
#116 = CARTESIAN_POINT ( 'NONE',  ( 2.199633243471174140E-13, 1.599999999999992317, 63.00000000000000000 ) ) ;
#117 = APPLICATION_PROTOCOL_DEFINITION ( 'international standard', 'config_control_design', 1994, #131 ) ;
#118 = APPROVAL_DATE_TIME ( #177, #190 ) ;
#119 = APPLICATION_PROTOCOL_DEFINITION ( 'international standard', 'config_control_design', 1994, #171 ) ;
#120 = DIRECTION ( 'NONE',  ( 0.0000000000000000000, 1.000000000000000000, 0.0000000000000000000 ) ) ;
#121 = CARTESIAN_POINT ( 'NONE',  ( 7.681258945454893382E-14, 1.802711258759548269E-32, 22.00000000000000000 ) ) ;
#122 = CC_DESIGN_APPROVAL ( #190, ( #212 ) ) ;
#123 = DIRECTION ( 'NONE',  ( 3.491481338843133355E-15, -1.224646799147353207E-16, 1.000000000000000000 ) ) ;
#124 = SHAPE_DEFINITION_REPRESENTATION ( #20, #184 ) ;
#125 = DIRECTION ( 'NONE',  ( -3.491481338843133355E-15, 1.224646799147353207E-16, -1.000000000000000000 ) ) ;
#126 = DIRECTION ( 'NONE',  ( -3.491481338843133355E-15, 1.224646799147353207E-16, -1.000000000000000000 ) ) ;
#127 = ORIENTED_EDGE ( 'NONE', *, *, #172, .T. ) ;
#128 = LOCAL_TIME ( 15, 23, 6.000000000000000000, #143 ) ;
#129 = ADVANCED_FACE ( 'NONE', ( #44 ), #204, .F. ) ;
#130 = DIRECTION ( 'NONE',  ( -3.491481338843133355E-15, 1.224646799147353207E-16, -1.000000000000000000 ) ) ;
#131 = APPLICATION_CONTEXT ( 'configuration controlled 3d designs of mechanical parts and assemblies' ) ;
#132 = CIRCLE ( 'NONE', #154, 2.104000000000000536 ) ;
#133 = LOCAL_TIME ( 15, 23, 6.000000000000000000, #3 ) ;
#134 = ADVANCED_FACE ( 'NONE', ( #69 ), #235, .F. ) ;
#135 =( GEOMETRIC_REPRESENTATION_CONTEXT ( 3 ) GLOBAL_UNCERTAINTY_ASSIGNED_CONTEXT ( ( #166 ) ) GLOBAL_UNIT_ASSIGNED_CONTEXT ( ( #173, #155, #228 ) ) REPRESENTATION_CONTEXT ( 'NONE', 'WORKASPACE' ) );
#136 = APPROVAL_STATUS ( 'not_yet_approved' ) ;
#137 = CARTESIAN_POINT ( 'NONE',  ( 7.681258945454892119E-14, 2.403999999999996362, 21.99999999999999645 ) ) ;
#138 = AXIS2_PLACEMENT_3D ( 'NONE', #236, #86, #199 ) ;
#139 = PERSON_AND_ORGANIZATION ( #55, #58 ) ;
#140 = CC_DESIGN_PERSON_AND_ORGANIZATION_ASSIGNMENT ( #164, #201, ( #10 ) ) ;
#141 = CARTESIAN_POINT ( 'NONE',  ( -4.498174681083601736E-31, 1.577747291360274827E-32, -1.288328432703015926E-16 ) ) ;
#142 = FACE_OUTER_BOUND ( 'NONE', #113, .T. ) ;
#143 = COORDINATED_UNIVERSAL_TIME_OFFSET ( 1, 0, .AHEAD. ) ;
#144 = DIRECTION ( 'NONE',  ( -3.491481338843133355E-15, 1.224646799147353207E-16, -1.000000000000000000 ) ) ;
#145 = CARTESIAN_POINT ( 'NONE',  ( 2.199633243471174140E-13, -7.715274834628325378E-15, 63.00000000000000000 ) ) ;
#146 = EDGE_CURVE ( 'NONE', #22, #22, #179, .T. ) ;
#147 = EDGE_LOOP ( 'NONE', ( #75 ) ) ;
#148 = AXIS2_PLACEMENT_3D ( 'NONE', #217, #181, #231 ) ;
#149 = MANIFOLD_SOLID_BREP ( 'Corps-Déplacer/Copier1[2]', #35 ) ;
#150 = ORIENTED_EDGE ( 'NONE', *, *, #53, .F. ) ;
#151 = ORIENTED_EDGE ( 'NONE', *, *, #11, .F. ) ;
#152 = CARTESIAN_POINT ( 'NONE',  ( 7.681258945454892119E-14, -2.694222958124176415E-15, 21.99999999999999645 ) ) ;
#153 = DIRECTION ( 'NONE',  ( 4.275831445896958607E-31, 1.000000000000000000, 1.224646799147353207E-16 ) ) ;
#154 = AXIS2_PLACEMENT_3D ( 'NONE', #17, #14, #51 ) ;
#155 =( NAMED_UNIT ( * ) PLANE_ANGLE_UNIT ( ) SI_UNIT ( $, .RADIAN. ) );
#156 = VERTEX_POINT ( 'NONE', #137 ) ;
#157 = CIRCLE ( 'NONE', #102, 1.999999999999994893 ) ;
#158 = CARTESIAN_POINT ( 'NONE',  ( 7.681258945454892119E-14, -2.694222958124176415E-15, 21.99999999999999645 ) ) ;
#159 = CYLINDRICAL_SURFACE ( 'NONE', #31, 1.999999999999997335 ) ;
#160 = CARTESIAN_POINT ( 'NONE',  ( 0.0000000000000000000, 0.0000000000000000000, 0.0000000000000000000 ) ) ;
#161 = CALENDAR_DATE ( 2021, 30, 11 ) ;
#162 = APPROVAL_PERSON_ORGANIZATION ( #106, #90, #188 ) ;
#163 = FACE_OUTER_BOUND ( 'NONE', #16, .T. ) ;
#164 = PERSON_AND_ORGANIZATION ( #55, #58 ) ;
#165 = ORIENTED_EDGE ( 'NONE', *, *, #172, .F. ) ;
#166 = UNCERTAINTY_MEASURE_WITH_UNIT (LENGTH_MEASURE( 1.000000000000000082E-05 ), #173, 'distance_accuracy_value', 'NONE');
#167 = EDGE_LOOP ( 'NONE', ( #37 ) ) ;
#168 = CC_DESIGN_PERSON_AND_ORGANIZATION_ASSIGNMENT ( #222, #85, ( #187 ) ) ;
#169 = ORIENTED_EDGE ( 'NONE', *, *, #194, .F. ) ;
#170 = EDGE_LOOP ( 'NONE', ( #165 ) ) ;
#171 = APPLICATION_CONTEXT ( 'configuration controlled 3d designs of mechanical parts and assemblies' ) ;
#172 = EDGE_CURVE ( 'NONE', #79, #79, #157, .T. ) ;
#173 =( LENGTH_UNIT ( ) NAMED_UNIT ( * ) SI_UNIT ( .MILLI., .METRE. ) );
#174 = PERSON_AND_ORGANIZATION ( #55, #58 ) ;
#175 = PERSON_AND_ORGANIZATION_ROLE ( 'creator' ) ;
#176 = CARTESIAN_POINT ( 'NONE',  ( 2.185667318115801607E-13, 1.999999999999992228, 62.60000000000000142 ) ) ;
#177 = DATE_AND_TIME ( #24, #104 ) ;
#178 = CC_DESIGN_PERSON_AND_ORGANIZATION_ASSIGNMENT ( #174, #175, ( #212 ) ) ;
#179 = CIRCLE ( 'NONE', #238, 2.000000000000000000 ) ;
#180 = DIRECTION ( 'NONE',  ( -4.275831445896958607E-31, -1.000000000000000000, -1.224646799147353207E-16 ) ) ;
#181 = DIRECTION ( 'NONE',  ( -3.491481338843133355E-15, 1.224646799147353207E-16, -1.000000000000000000 ) ) ;
#182 = APPROVAL_DATE_TIME ( #219, #90 ) ;
#183 = DIRECTION ( 'NONE',  ( 0.0000000000000000000, 1.000000000000000000, 0.0000000000000000000 ) ) ;
#184 = ADVANCED_BREP_SHAPE_REPRESENTATION ( '969444', ( #64, #149, #15 ), #135 ) ;
#185 = CARTESIAN_POINT ( 'NONE',  ( 7.925574837586117498E-14, -2.779917437413151232E-15, 22.69974852625784223 ) ) ;
#186 = DATE_AND_TIME ( #81, #133 ) ;
#187 = SECURITY_CLASSIFICATION ( '', '', #45 ) ;
#188 = APPROVAL_ROLE ( '' ) ;
#189 = ORIENTED_EDGE ( 'NONE', *, *, #53, .T. ) ;
#190 = APPROVAL ( #98, 'UNSPECIFIED' ) ;
#191 = DIRECTION ( 'NONE',  ( 0.0000000000000000000, 1.000000000000000000, 0.0000000000000000000 ) ) ;
#192 = EDGE_LOOP ( 'NONE', ( #127 ) ) ;
#193 = EDGE_LOOP ( 'NONE', ( #93 ) ) ;
#194 = EDGE_CURVE ( 'NONE', #156, #156, #95, .T. ) ;
#195 = COORDINATED_UNIVERSAL_TIME_OFFSET ( 1, 0, .AHEAD. ) ;
#196 = MECHANICAL_CONTEXT ( 'NONE', #131, 'mechanical' ) ;
#197 = DIRECTION ( 'NONE',  ( 1.000000000000000000, 0.0000000000000000000, 0.0000000000000000000 ) ) ;
#198 = FACE_OUTER_BOUND ( 'NONE', #241, .T. ) ;
#199 = DIRECTION ( 'NONE',  ( -4.005677920938515409E-31, -1.000000000000000000, -1.127498099506557571E-16 ) ) ;
#200 = LOCAL_TIME ( 15, 23, 6.000000000000000000, #195 ) ;
#201 = PERSON_AND_ORGANIZATION_ROLE ( 'creator' ) ;
#202 = DIRECTION ( 'NONE',  ( -3.491481338843133355E-15, 1.224646799147353207E-16, -1.000000000000000000 ) ) ;
#203 = DIRECTION ( 'NONE',  ( 0.0000000000000000000, 1.000000000000000000, 0.0000000000000000000 ) ) ;
#204 = PLANE ( 'NONE',  #224 ) ;
#205 = AXIS2_PLACEMENT_3D ( 'NONE', #34, #91, #94 ) ;
#206 = EDGE_LOOP ( 'NONE', ( #150 ) ) ;
#207 = CC_DESIGN_DATE_AND_TIME_ASSIGNMENT ( #234, #12, ( #187 ) ) ;
#208 = DESIGN_CONTEXT ( 'detailed design', #171, 'design' ) ;
#209 = CARTESIAN_POINT ( 'NONE',  ( 0.0000000000000000000, 0.0000000000000000000, 0.0000000000000000000 ) ) ;
#210 = CIRCLE ( 'NONE', #108, 1.600000000000000089 ) ;
#211 = CARTESIAN_POINT ( 'NONE',  ( 7.925574837586117498E-14, 1.999999999999992228, 22.69974852625784223 ) ) ;
#212 = PRODUCT_DEFINITION ( 'UNKNOWN', '', #10, #208 ) ;
#213 = APPROVAL_ROLE ( '' ) ;
#214 = CC_DESIGN_APPROVAL ( #115, ( #10 ) ) ;
#215 = ADVANCED_FACE ( 'NONE', ( #163, #88 ), #18, .T. ) ;
#216 = DIRECTION ( 'NONE',  ( -4.275831445896958607E-31, -1.000000000000000000, -1.224646799147353207E-16 ) ) ;
#217 = CARTESIAN_POINT ( 'NONE',  ( 7.925574837586117498E-14, -2.779917437413151232E-15, 22.69974852625784223 ) ) ;
#218 = VERTEX_POINT ( 'NONE', #96 ) ;
#219 = DATE_AND_TIME ( #161, #112 ) ;
#220 = PLANE ( 'NONE',  #71 ) ;
#221 = FACE_OUTER_BOUND ( 'NONE', #223, .T. ) ;
#222 = PERSON_AND_ORGANIZATION ( #55, #58 ) ;
#223 = EDGE_LOOP ( 'NONE', ( #189 ) ) ;
#224 = AXIS2_PLACEMENT_3D ( 'NONE', #121, #109, #180 ) ;
#225 = CC_DESIGN_DATE_AND_TIME_ASSIGNMENT ( #23, #2, ( #212 ) ) ;
#226 = EDGE_LOOP ( 'NONE', ( #237 ) ) ;
#227 = CC_DESIGN_SECURITY_CLASSIFICATION ( #187, ( #10 ) ) ;
#228 =( NAMED_UNIT ( * ) SI_UNIT ( $, .STERADIAN. ) SOLID_ANGLE_UNIT ( ) );
#229 = COORDINATED_UNIVERSAL_TIME_OFFSET ( 1, 0, .AHEAD. ) ;
#230 = ADVANCED_FACE ( 'NONE', ( #198, #25 ), #4, .T. ) ;
#231 = DIRECTION ( 'NONE',  ( 0.0000000000000000000, 1.000000000000000000, 0.0000000000000000000 ) ) ;
#232 = FACE_OUTER_BOUND ( 'NONE', #170, .T. ) ;
#233 = AXIS2_PLACEMENT_3D ( 'NONE', #152, #111, #191 ) ;
#234 = DATE_AND_TIME ( #33, #128 ) ;
#235 = PLANE ( 'NONE',  #242 ) ;
#236 = CARTESIAN_POINT ( 'NONE',  ( 1.047444401652939021E-15, -3.673940397442056417E-17, 0.2999999999999997113 ) ) ;
#237 = ORIENTED_EDGE ( 'NONE', *, *, #32, .T. ) ;
#238 = AXIS2_PLACEMENT_3D ( 'NONE', #9, #125, #27 ) ;
#239 = FACE_OUTER_BOUND ( 'NONE', #240, .T. ) ;
#240 = EDGE_LOOP ( 'NONE', ( #13 ) ) ;
#241 = EDGE_LOOP ( 'NONE', ( #169 ) ) ;
#242 = AXIS2_PLACEMENT_3D ( 'NONE', #141, #68, #48 ) ;
#243 = PERSON_AND_ORGANIZATION ( #55, #58 ) ;
ENDSEC;
END-ISO-10303-21;
