ISO-10303-21;
HEADER;
FILE_DESCRIPTION (( 'STEP AP203' ),
    '1' );
FILE_NAME ('969443.step',
    '2021-11-30T14:23:05',
    ( '' ),
    ( '' ),
    'SwSTEP 2.0',
    'SolidWorks 2019',
    '' );
FILE_SCHEMA (( 'CONFIG_CONTROL_DESIGN' ));
ENDSEC;

DATA;
#1 = PRODUCT_DEFINITION_FORMATION_WITH_SPECIFIED_SOURCE ( 'ANY', '', #86, .NOT_KNOWN. ) ;
#2 = PERSON_AND_ORGANIZATION ( #45, #243 ) ;
#3 = PERSON_AND_ORGANIZATION_ROLE ( 'design_owner' ) ;
#4 = DIRECTION ( 'NONE',  ( 0.0000000000000000000, 1.000000000000000000, 0.0000000000000000000 ) ) ;
#5 = APPLICATION_CONTEXT ( 'configuration controlled 3d designs of mechanical parts and assemblies' ) ;
#6 = AXIS2_PLACEMENT_3D ( 'NONE', #139, #98, #10 ) ;
#7 = CARTESIAN_POINT ( 'NONE',  ( -8.782557789872358082E-31, 3.080506593587457869E-32, -2.515424525448665067E-16 ) ) ;
#8 = COORDINATED_UNIVERSAL_TIME_OFFSET ( 1, 0, .AHEAD. ) ;
#9 = APPROVAL ( #175, 'UNSPECIFIED' ) ;
#10 = DIRECTION ( 'NONE',  ( 0.0000000000000000000, 1.000000000000000000, 0.0000000000000000000 ) ) ;
#11 = PERSON_AND_ORGANIZATION_ROLE ( 'creator' ) ;
#12 = CIRCLE ( 'NONE', #87, 2.354000000000000981 ) ;
#13 = DIRECTION ( 'NONE',  ( 0.0000000000000000000, 1.000000000000000000, 0.0000000000000000000 ) ) ;
#14 = DIRECTION ( 'NONE',  ( 3.491481338843133355E-15, -1.224646799147353207E-16, 1.000000000000000000 ) ) ;
#15 = CC_DESIGN_APPROVAL ( #9, ( #52 ) ) ;
#16 = AXIS2_PLACEMENT_3D ( 'NONE', #7, #121, #154 ) ;
#17 = EDGE_LOOP ( 'NONE', ( #96 ) ) ;
#18 = CIRCLE ( 'NONE', #84, 1.600000000000000089 ) ;
#19 = APPROVAL_ROLE ( '' ) ;
#20 = DIRECTION ( 'NONE',  ( -4.275831445896958607E-31, -1.000000000000000000, -1.224646799147353207E-16 ) ) ;
#21 = COORDINATED_UNIVERSAL_TIME_OFFSET ( 1, 0, .AHEAD. ) ;
#22 = EDGE_LOOP ( 'NONE', ( #167 ) ) ;
#23 = CALENDAR_DATE ( 2021, 30, 11 ) ;
#24 = VERTEX_POINT ( 'NONE', #189 ) ;
#25 = VERTEX_POINT ( 'NONE', #104 ) ;
#26 = FACE_OUTER_BOUND ( 'NONE', #39, .T. ) ;
#27 = APPLICATION_PROTOCOL_DEFINITION ( 'international standard', 'config_control_design', 1994, #116 ) ;
#28 = ADVANCED_FACE ( 'NONE', ( #40 ), #115, .F. ) ;
#29 = DIRECTION ( 'NONE',  ( -4.090760289692518629E-31, -1.000000000000000000, -1.151446657270078073E-16 ) ) ;
#30 = CARTESIAN_POINT ( 'NONE',  ( 0.0000000000000000000, 2.054000000000001158, 0.0000000000000000000 ) ) ;
#31 = DIRECTION ( 'NONE',  ( -3.491481338843133355E-15, 1.224646799147353207E-16, -1.000000000000000000 ) ) ;
#32 = DIRECTION ( 'NONE',  ( 0.0000000000000000000, 1.000000000000000000, 0.0000000000000000000 ) ) ;
#33 = CLOSED_SHELL ( 'NONE', ( #54, #68, #105, #69 ) ) ;
#34 = EDGE_CURVE ( 'NONE', #43, #43, #53, .T. ) ;
#35 = SECURITY_CLASSIFICATION ( '', '', #240 ) ;
#36 = EDGE_LOOP ( 'NONE', ( #91 ) ) ;
#37 = EDGE_LOOP ( 'NONE', ( #237 ) ) ;
#38 = UNCERTAINTY_MEASURE_WITH_UNIT (LENGTH_MEASURE( 1.000000000000000082E-05 ), #228, 'distance_accuracy_value', 'NONE');
#39 = EDGE_LOOP ( 'NONE', ( #70 ) ) ;
#40 = FACE_OUTER_BOUND ( 'NONE', #118, .T. ) ;
#41 = APPROVAL_STATUS ( 'not_yet_approved' ) ;
#42 = DIRECTION ( 'NONE',  ( 4.275831445896959482E-31, 1.000000000000000000, 1.224646799147353454E-16 ) ) ;
#43 = VERTEX_POINT ( 'NONE', #171 ) ;
#44 = FACE_OUTER_BOUND ( 'NONE', #242, .T. ) ;
#45 = PERSON ( 'UNSPECIFIED', 'UNSPECIFIED', 'UNSPECIFIED', ('UNSPECIFIED'), ('UNSPECIFIED'), ('UNSPECIFIED') ) ;
#46 =( NAMED_UNIT ( * ) PLANE_ANGLE_UNIT ( ) SI_UNIT ( $, .RADIAN. ) );
#47 = DIRECTION ( 'NONE',  ( -4.275831445896958607E-31, -1.000000000000000000, -1.224646799147353207E-16 ) ) ;
#48 = PERSON_AND_ORGANIZATION ( #45, #243 ) ;
#49 = APPROVAL_PERSON_ORGANIZATION ( #224, #233, #58 ) ;
#50 = DIRECTION ( 'NONE',  ( -3.491481338843133355E-15, 1.224646799147353207E-16, -1.000000000000000000 ) ) ;
#51 = CIRCLE ( 'NONE', #81, 2.354000000000000981 ) ;
#52 = PRODUCT_DEFINITION ( 'UNKNOWN', '', #1, #71 ) ;
#53 = CIRCLE ( 'NONE', #130, 2.000000000000000000 ) ;
#54 = ADVANCED_FACE ( 'NONE', ( #72 ), #150, .F. ) ;
#55 = ORIENTED_EDGE ( 'NONE', *, *, #195, .T. ) ;
#56 = APPROVAL_DATE_TIME ( #188, #140 ) ;
#57 = ORIENTED_EDGE ( 'NONE', *, *, #204, .T. ) ;
#58 = APPROVAL_ROLE ( '' ) ;
#59 = CARTESIAN_POINT ( 'NONE',  ( 0.0000000000000000000, 0.0000000000000000000, 0.0000000000000000000 ) ) ;
#60 = DIRECTION ( 'NONE',  ( 0.0000000000000000000, 1.000000000000000000, 0.0000000000000000000 ) ) ;
#61 = DIRECTION ( 'NONE',  ( 1.000000000000000000, 0.0000000000000000000, 0.0000000000000000000 ) ) ;
#62 = EDGE_CURVE ( 'NONE', #208, #208, #18, .T. ) ;
#63 = CARTESIAN_POINT ( 'NONE',  ( 7.681258945454893382E-14, -2.694222958124176809E-15, 22.00000000000000000 ) ) ;
#64 = PERSON_AND_ORGANIZATION ( #45, #243 ) ;
#65 = CARTESIAN_POINT ( 'NONE',  ( 0.0000000000000000000, 0.0000000000000000000, 0.0000000000000000000 ) ) ;
#66 = DATE_TIME_ROLE ( 'creation_date' ) ;
#67 = DIRECTION ( 'NONE',  ( -3.491481338843133355E-15, 1.224646799147353207E-16, -1.000000000000000000 ) ) ;
#68 = ADVANCED_FACE ( 'NONE', ( #172, #174 ), #207, .T. ) ;
#69 = ADVANCED_FACE ( 'NONE', ( #213 ), #156, .T. ) ;
#70 = ORIENTED_EDGE ( 'NONE', *, *, #34, .F. ) ;
#71 = DESIGN_CONTEXT ( 'detailed design', #116, 'design' ) ;
#72 = FACE_OUTER_BOUND ( 'NONE', #238, .T. ) ;
#73 = ORIENTED_EDGE ( 'NONE', *, *, #62, .F. ) ;
#74 = CC_DESIGN_PERSON_AND_ORGANIZATION_ASSIGNMENT ( #134, #219, ( #35 ) ) ;
#75 = EDGE_CURVE ( 'NONE', #25, #25, #12, .T. ) ;
#76 = AXIS2_PLACEMENT_3D ( 'NONE', #160, #67, #144 ) ;
#77 = PERSON_AND_ORGANIZATION_ROLE ( 'design_supplier' ) ;
#78 = APPROVAL_PERSON_ORGANIZATION ( #48, #9, #120 ) ;
#79 = DATE_AND_TIME ( #97, #111 ) ;
#80 = CARTESIAN_POINT ( 'NONE',  ( 7.681258945454893382E-14, 1.765217264193003470E-32, 22.00000000000000000 ) ) ;
#81 = AXIS2_PLACEMENT_3D ( 'NONE', #63, #90, #60 ) ;
#82 = VERTEX_POINT ( 'NONE', #100 ) ;
#83 = CARTESIAN_POINT ( 'NONE',  ( 2.199633243471174140E-13, -7.715274834628325378E-15, 63.00000000000000000 ) ) ;
#84 = AXIS2_PLACEMENT_3D ( 'NONE', #192, #50, #4 ) ;
#85 = CARTESIAN_POINT ( 'NONE',  ( 1.047444401652939021E-15, -3.673940397442056417E-17, 0.2999999999999997113 ) ) ;
#86 = PRODUCT ( '969443', '969443', '', ( #102 ) ) ;
#87 = AXIS2_PLACEMENT_3D ( 'NONE', #227, #124, #13 ) ;
#88 = VERTEX_POINT ( 'NONE', #30 ) ;
#89 = FACE_BOUND ( 'NONE', #184, .T. ) ;
#90 = DIRECTION ( 'NONE',  ( -3.491481338843133355E-15, 1.224646799147353207E-16, -1.000000000000000000 ) ) ;
#91 = ORIENTED_EDGE ( 'NONE', *, *, #195, .F. ) ;
#92 = CC_DESIGN_PERSON_AND_ORGANIZATION_ASSIGNMENT ( #133, #77, ( #1 ) ) ;
#93 = CALENDAR_DATE ( 2021, 30, 11 ) ;
#94 = ORIENTED_EDGE ( 'NONE', *, *, #117, .T. ) ;
#95 = COORDINATED_UNIVERSAL_TIME_OFFSET ( 1, 0, .AHEAD. ) ;
#96 = ORIENTED_EDGE ( 'NONE', *, *, #204, .F. ) ;
#97 = CALENDAR_DATE ( 2021, 30, 11 ) ;
#98 = DIRECTION ( 'NONE',  ( -3.491481338843133355E-15, 1.224646799147353207E-16, -1.000000000000000000 ) ) ;
#99 = CC_DESIGN_SECURITY_CLASSIFICATION ( #35, ( #1 ) ) ;
#100 = CARTESIAN_POINT ( 'NONE',  ( 7.681258945454893382E-14, 2.353999999999998316, 22.00000000000000000 ) ) ;
#101 = FACE_BOUND ( 'NONE', #136, .T. ) ;
#102 = MECHANICAL_CONTEXT ( 'NONE', #5, 'mechanical' ) ;
#103 = FACE_OUTER_BOUND ( 'NONE', #164, .T. ) ;
#104 = CARTESIAN_POINT ( 'NONE',  ( 7.681258945454893382E-14, 2.353999999999998316, 22.00000000000000000 ) ) ;
#105 = ADVANCED_FACE ( 'NONE', ( #231, #103 ), #194, .T. ) ;
#106 = DIRECTION ( 'NONE',  ( 4.275831445896958607E-31, 1.000000000000000000, 1.224646799147353207E-16 ) ) ;
#107 = FACE_OUTER_BOUND ( 'NONE', #37, .T. ) ;
#108 = MANIFOLD_SOLID_BREP ( 'Corps-Déplacer/Copier1[1]', #196 ) ;
#109 = MANIFOLD_SOLID_BREP ( 'Corps-Déplacer/Copier1[2]', #33 ) ;
#110 =( GEOMETRIC_REPRESENTATION_CONTEXT ( 3 ) GLOBAL_UNCERTAINTY_ASSIGNED_CONTEXT ( ( #38 ) ) GLOBAL_UNIT_ASSIGNED_CONTEXT ( ( #228, #46, #210 ) ) REPRESENTATION_CONTEXT ( 'NONE', 'WORKASPACE' ) );
#111 = LOCAL_TIME ( 15, 23, 5.000000000000000000, #8 ) ;
#112 = EDGE_LOOP ( 'NONE', ( #57 ) ) ;
#113 = ORIENTED_EDGE ( 'NONE', *, *, #75, .F. ) ;
#114 = DATE_AND_TIME ( #93, #183 ) ;
#115 = PLANE ( 'NONE',  #181 ) ;
#116 = APPLICATION_CONTEXT ( 'configuration controlled 3d designs of mechanical parts and assemblies' ) ;
#117 = EDGE_CURVE ( 'NONE', #88, #88, #146, .T. ) ;
#118 = EDGE_LOOP ( 'NONE', ( #55 ) ) ;
#119 = SHAPE_DEFINITION_REPRESENTATION ( #232, #178 ) ;
#120 = APPROVAL_ROLE ( '' ) ;
#121 = DIRECTION ( 'NONE',  ( -3.491481338843133355E-15, 1.224646799147353207E-16, -1.000000000000000000 ) ) ;
#122 = PLANE ( 'NONE',  #143 ) ;
#123 = CC_DESIGN_PERSON_AND_ORGANIZATION_ASSIGNMENT ( #2, #201, ( #1 ) ) ;
#124 = DIRECTION ( 'NONE',  ( -3.491481338843133355E-15, 1.224646799147353207E-16, -1.000000000000000000 ) ) ;
#125 = LOCAL_TIME ( 15, 23, 5.000000000000000000, #95 ) ;
#126 = DATE_AND_TIME ( #230, #214 ) ;
#127 = DIRECTION ( 'NONE',  ( 3.491481338843133355E-15, -1.224646799147353207E-16, 1.000000000000000000 ) ) ;
#128 = CONICAL_SURFACE ( 'NONE', #155, 1.600000000000000089, 0.7853981633974512766 ) ;
#129 = ADVANCED_FACE ( 'NONE', ( #107, #206 ), #226, .T. ) ;
#130 = AXIS2_PLACEMENT_3D ( 'NONE', #149, #241, #162 ) ;
#131 = CONICAL_SURFACE ( 'NONE', #76, 1.999999999999994893, 0.5235987755982931535 ) ;
#132 = PRODUCT_RELATED_PRODUCT_CATEGORY ( 'detail', '', ( #86 ) ) ;
#133 = PERSON_AND_ORGANIZATION ( #45, #243 ) ;
#134 = PERSON_AND_ORGANIZATION ( #45, #243 ) ;
#135 = ORIENTED_EDGE ( 'NONE', *, *, #197, .T. ) ;
#136 = EDGE_LOOP ( 'NONE', ( #202 ) ) ;
#137 = APPROVAL_DATE_TIME ( #114, #233 ) ;
#138 = CARTESIAN_POINT ( 'NONE',  ( 1.047444401652939021E-15, -3.673940397442056417E-17, 0.2999999999999997113 ) ) ;
#139 = CARTESIAN_POINT ( 'NONE',  ( 7.895337722223343717E-14, -2.769311685025902762E-15, 22.61314598587939884 ) ) ;
#140 = APPROVAL ( #41, 'UNSPECIFIED' ) ;
#141 = DIRECTION ( 'NONE',  ( -3.491481338843133355E-15, 1.224646799147353207E-16, -1.000000000000000000 ) ) ;
#142 = DIRECTION ( 'NONE',  ( 0.0000000000000000000, 0.0000000000000000000, 1.000000000000000000 ) ) ;
#143 = AXIS2_PLACEMENT_3D ( 'NONE', #211, #31, #106 ) ;
#144 = DIRECTION ( 'NONE',  ( 0.0000000000000000000, 1.000000000000000000, 0.0000000000000000000 ) ) ;
#145 = CC_DESIGN_APPROVAL ( #140, ( #1 ) ) ;
#146 = CIRCLE ( 'NONE', #16, 2.054000000000001158 ) ;
#147 = AXIS2_PLACEMENT_3D ( 'NONE', #138, #127, #29 ) ;
#148 = CC_DESIGN_DATE_AND_TIME_ASSIGNMENT ( #165, #223, ( #35 ) ) ;
#149 = CARTESIAN_POINT ( 'NONE',  ( 2.185667318115801607E-13, -7.666288962662431950E-15, 62.60000000000000142 ) ) ;
#150 = PLANE ( 'NONE',  #239 ) ;
#151 = CALENDAR_DATE ( 2021, 30, 11 ) ;
#152 = APPROVAL_PERSON_ORGANIZATION ( #205, #140, #19 ) ;
#153 = CARTESIAN_POINT ( 'NONE',  ( 2.199633243471174140E-13, 1.599999999999992317, 63.00000000000000000 ) ) ;
#154 = DIRECTION ( 'NONE',  ( 4.275831445896958607E-31, 1.000000000000000000, 1.224646799147353207E-16 ) ) ;
#155 = AXIS2_PLACEMENT_3D ( 'NONE', #83, #176, #32 ) ;
#156 = PLANE ( 'NONE',  #236 ) ;
#157 = VERTEX_POINT ( 'NONE', #173 ) ;
#158 = DIRECTION ( 'NONE',  ( -3.491481338843133355E-15, 1.224646799147353207E-16, -1.000000000000000000 ) ) ;
#159 = COORDINATED_UNIVERSAL_TIME_OFFSET ( 1, 0, .AHEAD. ) ;
#160 = CARTESIAN_POINT ( 'NONE',  ( 7.895337722223343717E-14, -2.769311685025902762E-15, 22.61314598587939884 ) ) ;
#161 = CC_DESIGN_DATE_AND_TIME_ASSIGNMENT ( #126, #66, ( #52 ) ) ;
#162 = DIRECTION ( 'NONE',  ( 0.0000000000000000000, 1.000000000000000000, 0.0000000000000000000 ) ) ;
#163 = DIRECTION ( 'NONE',  ( 3.491481338843133355E-15, -1.224646799147353207E-16, 1.000000000000000000 ) ) ;
#164 = EDGE_LOOP ( 'NONE', ( #218 ) ) ;
#165 = DATE_AND_TIME ( #151, #222 ) ;
#166 = CARTESIAN_POINT ( 'NONE',  ( 7.681258945454893382E-14, 1.765217264193003470E-32, 22.00000000000000000 ) ) ;
#167 = ORIENTED_EDGE ( 'NONE', *, *, #117, .F. ) ;
#168 = DIRECTION ( 'NONE',  ( 3.491481338843133355E-15, -1.224646799147353207E-16, 1.000000000000000000 ) ) ;
#169 = AXIS2_PLACEMENT_3D ( 'NONE', #85, #158, #193 ) ;
#170 = ADVANCED_FACE ( 'NONE', ( #26, #101 ), #128, .T. ) ;
#171 = CARTESIAN_POINT ( 'NONE',  ( 2.185667318115801607E-13, 1.999999999999992228, 62.60000000000000142 ) ) ;
#172 = FACE_BOUND ( 'NONE', #22, .T. ) ;
#173 = CARTESIAN_POINT ( 'NONE',  ( 7.895337722223343717E-14, 1.999999999999992228, 22.61314598587939884 ) ) ;
#174 = FACE_OUTER_BOUND ( 'NONE', #112, .T. ) ;
#175 = APPROVAL_STATUS ( 'not_yet_approved' ) ;
#176 = DIRECTION ( 'NONE',  ( -3.491481338843133355E-15, 1.224646799147353207E-16, -1.000000000000000000 ) ) ;
#177 = APPROVAL_DATE_TIME ( #79, #9 ) ;
#178 = ADVANCED_BREP_SHAPE_REPRESENTATION ( '969443', ( #108, #109, #198 ), #110 ) ;
#179 = FACE_OUTER_BOUND ( 'NONE', #36, .T. ) ;
#180 = DIRECTION ( 'NONE',  ( 4.275831445896958607E-31, 1.000000000000000000, 1.224646799147353207E-16 ) ) ;
#181 = AXIS2_PLACEMENT_3D ( 'NONE', #166, #168, #20 ) ;
#182 = CC_DESIGN_PERSON_AND_ORGANIZATION_ASSIGNMENT ( #191, #3, ( #86 ) ) ;
#183 = LOCAL_TIME ( 15, 23, 5.000000000000000000, #21 ) ;
#184 = EDGE_LOOP ( 'NONE', ( #135 ) ) ;
#185 = AXIS2_PLACEMENT_3D ( 'NONE', #229, #141, #180 ) ;
#186 = COORDINATED_UNIVERSAL_TIME_OFFSET ( 1, 0, .AHEAD. ) ;
#187 = ORIENTED_EDGE ( 'NONE', *, *, #34, .T. ) ;
#188 = DATE_AND_TIME ( #23, #125 ) ;
#189 = CARTESIAN_POINT ( 'NONE',  ( 1.047444401652939809E-15, 2.353999999999997428, 0.2999999999999999889 ) ) ;
#190 = DIRECTION ( 'NONE',  ( -3.491481338843133355E-15, 1.224646799147353207E-16, -1.000000000000000000 ) ) ;
#191 = PERSON_AND_ORGANIZATION ( #45, #243 ) ;
#192 = CARTESIAN_POINT ( 'NONE',  ( 2.199633243471174140E-13, -7.715274834628325378E-15, 63.00000000000000000 ) ) ;
#193 = DIRECTION ( 'NONE',  ( 4.090760289692518629E-31, 1.000000000000000000, 1.151446657270078073E-16 ) ) ;
#194 = CYLINDRICAL_SURFACE ( 'NONE', #185, 2.353999999999999204 ) ;
#195 = EDGE_CURVE ( 'NONE', #82, #82, #51, .T. ) ;
#196 = CLOSED_SHELL ( 'NONE', ( #28, #221, #129, #170, #220 ) ) ;
#197 = EDGE_CURVE ( 'NONE', #157, #157, #215, .T. ) ;
#198 = AXIS2_PLACEMENT_3D ( 'NONE', #59, #142, #61 ) ;
#199 = EDGE_LOOP ( 'NONE', ( #187 ) ) ;
#200 = EDGE_LOOP ( 'NONE', ( #113 ) ) ;
#201 = PERSON_AND_ORGANIZATION_ROLE ( 'creator' ) ;
#202 = ORIENTED_EDGE ( 'NONE', *, *, #62, .T. ) ;
#203 = CC_DESIGN_PERSON_AND_ORGANIZATION_ASSIGNMENT ( #64, #11, ( #52 ) ) ;
#204 = EDGE_CURVE ( 'NONE', #24, #24, #216, .T. ) ;
#205 = PERSON_AND_ORGANIZATION ( #45, #243 ) ;
#206 = FACE_OUTER_BOUND ( 'NONE', #199, .T. ) ;
#207 = CONICAL_SURFACE ( 'NONE', #147, 2.353999999999997428, 0.7853981633974423948 ) ;
#208 = VERTEX_POINT ( 'NONE', #153 ) ;
#209 = DIRECTION ( 'NONE',  ( -4.275831445896958607E-31, -1.000000000000000000, -1.224646799147353207E-16 ) ) ;
#210 =( NAMED_UNIT ( * ) SI_UNIT ( $, .STERADIAN. ) SOLID_ANGLE_UNIT ( ) );
#211 = CARTESIAN_POINT ( 'NONE',  ( 2.199633243471174140E-13, 1.199807826129474591E-32, 63.00000000000000000 ) ) ;
#212 = APPLICATION_PROTOCOL_DEFINITION ( 'international standard', 'config_control_design', 1994, #5 ) ;
#213 = FACE_OUTER_BOUND ( 'NONE', #200, .T. ) ;
#214 = LOCAL_TIME ( 15, 23, 5.000000000000000000, #159 ) ;
#215 = CIRCLE ( 'NONE', #6, 1.999999999999994893 ) ;
#216 = CIRCLE ( 'NONE', #169, 2.353999999999997428 ) ;
#217 = APPROVAL_STATUS ( 'not_yet_approved' ) ;
#218 = ORIENTED_EDGE ( 'NONE', *, *, #75, .T. ) ;
#219 = PERSON_AND_ORGANIZATION_ROLE ( 'classification_officer' ) ;
#220 = ADVANCED_FACE ( 'NONE', ( #44 ), #122, .F. ) ;
#221 = ADVANCED_FACE ( 'NONE', ( #179, #89 ), #131, .T. ) ;
#222 = LOCAL_TIME ( 15, 23, 5.000000000000000000, #186 ) ;
#223 = DATE_TIME_ROLE ( 'classification_date' ) ;
#224 = PERSON_AND_ORGANIZATION ( #45, #243 ) ;
#225 = AXIS2_PLACEMENT_3D ( 'NONE', #65, #190, #42 ) ;
#226 = CYLINDRICAL_SURFACE ( 'NONE', #225, 1.999999999999997335 ) ;
#227 = CARTESIAN_POINT ( 'NONE',  ( 7.681258945454893382E-14, -2.694222958124176809E-15, 22.00000000000000000 ) ) ;
#228 =( LENGTH_UNIT ( ) NAMED_UNIT ( * ) SI_UNIT ( .MILLI., .METRE. ) );
#229 = CARTESIAN_POINT ( 'NONE',  ( 0.0000000000000000000, 0.0000000000000000000, 0.0000000000000000000 ) ) ;
#230 = CALENDAR_DATE ( 2021, 30, 11 ) ;
#231 = FACE_OUTER_BOUND ( 'NONE', #17, .T. ) ;
#232 = PRODUCT_DEFINITION_SHAPE ( 'NONE', 'NONE',  #52 ) ;
#233 = APPROVAL ( #217, 'UNSPECIFIED' ) ;
#234 = CARTESIAN_POINT ( 'NONE',  ( -4.391278894936179041E-31, 1.540253296793728935E-32, -1.257712262724332533E-16 ) ) ;
#235 = CC_DESIGN_APPROVAL ( #233, ( #35 ) ) ;
#236 = AXIS2_PLACEMENT_3D ( 'NONE', #80, #14, #209 ) ;
#237 = ORIENTED_EDGE ( 'NONE', *, *, #197, .F. ) ;
#238 = EDGE_LOOP ( 'NONE', ( #94 ) ) ;
#239 = AXIS2_PLACEMENT_3D ( 'NONE', #234, #163, #47 ) ;
#240 = SECURITY_CLASSIFICATION_LEVEL ( 'unclassified' ) ;
#241 = DIRECTION ( 'NONE',  ( -3.491481338843133355E-15, 1.224646799147353207E-16, -1.000000000000000000 ) ) ;
#242 = EDGE_LOOP ( 'NONE', ( #73 ) ) ;
#243 = ORGANIZATION ( 'UNSPECIFIED', 'UNSPECIFIED', '' ) ;
ENDSEC;
END-ISO-10303-21;
