ISO-10303-21;
HEADER;
FILE_DESCRIPTION (( 'STEP AP203' ),
    '1' );
FILE_NAME ('969442.step',
    '2021-11-30T14:23:04',
    ( '' ),
    ( '' ),
    'SwSTEP 2.0',
    'SolidWorks 2019',
    '' );
FILE_SCHEMA (( 'CONFIG_CONTROL_DESIGN' ));
ENDSEC;

DATA;
#1 = SECURITY_CLASSIFICATION_LEVEL ( 'unclassified' ) ;
#2 = LOCAL_TIME ( 15, 23, 4.000000000000000000, #201 ) ;
#3 = ADVANCED_FACE ( 'NONE', ( #66 ), #33, .T. ) ;
#4 = DATE_AND_TIME ( #25, #188 ) ;
#5 = FACE_OUTER_BOUND ( 'NONE', #90, .T. ) ;
#6 = DIRECTION ( 'NONE',  ( 0.0000000000000000000, 0.0000000000000000000, 1.000000000000000000 ) ) ;
#7 = VERTEX_POINT ( 'NONE', #160 ) ;
#8 = APPROVAL_PERSON_ORGANIZATION ( #58, #29, #162 ) ;
#9 = CARTESIAN_POINT ( 'NONE',  ( 7.865100606860567412E-14, 1.999999999999992228, 22.52654344550095189 ) ) ;
#10 = CIRCLE ( 'NONE', #116, 2.304000000000002935 ) ;
#11 = ORIENTED_EDGE ( 'NONE', *, *, #110, .F. ) ;
#12 = DIRECTION ( 'NONE',  ( -4.275831445896958607E-31, -1.000000000000000000, -1.224646799147353207E-16 ) ) ;
#13 = EDGE_LOOP ( 'NONE', ( #236 ) ) ;
#14 = CARTESIAN_POINT ( 'NONE',  ( 2.199633243471174140E-13, -7.715274834628325378E-15, 63.00000000000000000 ) ) ;
#15 = ORIENTED_EDGE ( 'NONE', *, *, #45, .T. ) ;
#16 = DIRECTION ( 'NONE',  ( 0.0000000000000000000, 1.000000000000000000, 0.0000000000000000000 ) ) ;
#17 = SECURITY_CLASSIFICATION ( '', '', #1 ) ;
#18 = ORIENTED_EDGE ( 'NONE', *, *, #22, .T. ) ;
#19 = FACE_OUTER_BOUND ( 'NONE', #216, .T. ) ;
#20 = FACE_BOUND ( 'NONE', #82, .T. ) ;
#21 = CC_DESIGN_APPROVAL ( #29, ( #88 ) ) ;
#22 = EDGE_CURVE ( 'NONE', #7, #7, #64, .T. ) ;
#23 = DIRECTION ( 'NONE',  ( -3.491481338843133355E-15, 1.224646799147353207E-16, -1.000000000000000000 ) ) ;
#24 = CARTESIAN_POINT ( 'NONE',  ( 2.185667318115801607E-13, 1.999999999999992228, 62.60000000000000142 ) ) ;
#25 = CALENDAR_DATE ( 2021, 30, 11 ) ;
#26 = PRODUCT_DEFINITION_FORMATION_WITH_SPECIFIED_SOURCE ( 'ANY', '', #211, .NOT_KNOWN. ) ;
#27 = ADVANCED_FACE ( 'NONE', ( #5 ), #167, .F. ) ;
#28 = ORIENTED_EDGE ( 'NONE', *, *, #45, .F. ) ;
#29 = APPROVAL ( #191, 'UNSPECIFIED' ) ;
#30 = CYLINDRICAL_SURFACE ( 'NONE', #69, 2.304000000000000270 ) ;
#31 = PLANE ( 'NONE',  #239 ) ;
#32 = DATE_TIME_ROLE ( 'classification_date' ) ;
#33 = PLANE ( 'NONE',  #174 ) ;
#34 = DIRECTION ( 'NONE',  ( -3.491481338843133355E-15, 1.224646799147353207E-16, -1.000000000000000000 ) ) ;
#35 = APPROVAL_DATE_TIME ( #153, #63 ) ;
#36 = APPROVAL_PERSON_ORGANIZATION ( #172, #63, #170 ) ;
#37 = CARTESIAN_POINT ( 'NONE',  ( -4.284383108788753718E-31, 1.502759302227181947E-32, -1.227096092745648401E-16 ) ) ;
#38 = CLOSED_SHELL ( 'NONE', ( #43, #210, #92, #74, #140 ) ) ;
#39 = AXIS2_PLACEMENT_3D ( 'NONE', #87, #155, #234 ) ;
#40 = VERTEX_POINT ( 'NONE', #24 ) ;
#41 = APPROVAL_PERSON_ORGANIZATION ( #203, #146, #73 ) ;
#42 = PERSON_AND_ORGANIZATION ( #98, #114 ) ;
#43 = ADVANCED_FACE ( 'NONE', ( #83 ), #197, .F. ) ;
#44 = PRODUCT_DEFINITION_SHAPE ( 'NONE', 'NONE',  #88 ) ;
#45 = EDGE_CURVE ( 'NONE', #79, #79, #135, .T. ) ;
#46 = FACE_OUTER_BOUND ( 'NONE', #86, .T. ) ;
#47 = EDGE_LOOP ( 'NONE', ( #70 ) ) ;
#48 = DIRECTION ( 'NONE',  ( 4.275831445896958607E-31, 1.000000000000000000, 1.224646799147353207E-16 ) ) ;
#49 = ORIENTED_EDGE ( 'NONE', *, *, #62, .T. ) ;
#50 = CARTESIAN_POINT ( 'NONE',  ( 1.047444401652939218E-15, -3.673940397442057033E-17, 0.2999999999999997669 ) ) ;
#51 = APPROVAL_STATUS ( 'not_yet_approved' ) ;
#52 = DIRECTION ( 'NONE',  ( -4.275831445896958607E-31, -1.000000000000000000, -1.224646799147353207E-16 ) ) ;
#53 = CARTESIAN_POINT ( 'NONE',  ( -8.568766217577507437E-31, 3.005518604454363894E-32, -2.454192185491296802E-16 ) ) ;
#54 = CALENDAR_DATE ( 2021, 30, 11 ) ;
#55 = PRODUCT_RELATED_PRODUCT_CATEGORY ( 'detail', '', ( #211 ) ) ;
#56 = PERSON_AND_ORGANIZATION ( #98, #114 ) ;
#57 = CC_DESIGN_PERSON_AND_ORGANIZATION_ASSIGNMENT ( #75, #136, ( #26 ) ) ;
#58 = PERSON_AND_ORGANIZATION ( #98, #114 ) ;
#59 = VERTEX_POINT ( 'NONE', #9 ) ;
#60 = CALENDAR_DATE ( 2021, 30, 11 ) ;
#61 = CARTESIAN_POINT ( 'NONE',  ( 7.681258945454893382E-14, 2.304000000000000270, 22.00000000000000000 ) ) ;
#62 = EDGE_CURVE ( 'NONE', #124, #124, #10, .T. ) ;
#63 = APPROVAL ( #51, 'UNSPECIFIED' ) ;
#64 = CIRCLE ( 'NONE', #205, 2.303999999999997161 ) ;
#65 = DIRECTION ( 'NONE',  ( -4.275831445896958607E-31, -1.000000000000000000, -1.224646799147353207E-16 ) ) ;
#66 = FACE_OUTER_BOUND ( 'NONE', #163, .T. ) ;
#67 = CARTESIAN_POINT ( 'NONE',  ( 2.199633243471174140E-13, -7.715274834628325378E-15, 63.00000000000000000 ) ) ;
#68 = FACE_OUTER_BOUND ( 'NONE', #193, .T. ) ;
#69 = AXIS2_PLACEMENT_3D ( 'NONE', #105, #111, #48 ) ;
#70 = ORIENTED_EDGE ( 'NONE', *, *, #110, .T. ) ;
#71 = CARTESIAN_POINT ( 'NONE',  ( 7.681258945454893382E-14, -2.694222958124176809E-15, 22.00000000000000000 ) ) ;
#72 = CIRCLE ( 'NONE', #141, 2.004000000000000448 ) ;
#73 = APPROVAL_ROLE ( '' ) ;
#74 = ADVANCED_FACE ( 'NONE', ( #46, #20 ), #224, .T. ) ;
#75 = PERSON_AND_ORGANIZATION ( #98, #114 ) ;
#76 = AXIS2_PLACEMENT_3D ( 'NONE', #85, #152, #65 ) ;
#77 = CARTESIAN_POINT ( 'NONE',  ( 0.0000000000000000000, 2.004000000000000448, 0.0000000000000000000 ) ) ;
#78 = MECHANICAL_CONTEXT ( 'NONE', #95, 'mechanical' ) ;
#79 = VERTEX_POINT ( 'NONE', #177 ) ;
#80 = VERTEX_POINT ( 'NONE', #61 ) ;
#81 = APPLICATION_PROTOCOL_DEFINITION ( 'international standard', 'config_control_design', 1994, #95 ) ;
#82 = EDGE_LOOP ( 'NONE', ( #15 ) ) ;
#83 = FACE_OUTER_BOUND ( 'NONE', #130, .T. ) ;
#84 = EDGE_LOOP ( 'NONE', ( #18 ) ) ;
#85 = CARTESIAN_POINT ( 'NONE',  ( 7.681258945454893382E-14, 1.727723269626458399E-32, 22.00000000000000000 ) ) ;
#86 = EDGE_LOOP ( 'NONE', ( #180 ) ) ;
#87 = CARTESIAN_POINT ( 'NONE',  ( 7.865100606860567412E-14, -2.758705932638653108E-15, 22.52654344550095189 ) ) ;
#88 = PRODUCT_DEFINITION ( 'UNKNOWN', '', #26, #178 ) ;
#89 = CALENDAR_DATE ( 2021, 30, 11 ) ;
#90 = EDGE_LOOP ( 'NONE', ( #196 ) ) ;
#91 = DIRECTION ( 'NONE',  ( 0.0000000000000000000, 1.000000000000000000, 0.0000000000000000000 ) ) ;
#92 = ADVANCED_FACE ( 'NONE', ( #19, #169 ), #125, .T. ) ;
#93 = FACE_OUTER_BOUND ( 'NONE', #13, .T. ) ;
#94 = COORDINATED_UNIVERSAL_TIME_OFFSET ( 1, 0, .AHEAD. ) ;
#95 = APPLICATION_CONTEXT ( 'configuration controlled 3d designs of mechanical parts and assemblies' ) ;
#96 = CC_DESIGN_PERSON_AND_ORGANIZATION_ASSIGNMENT ( #56, #168, ( #17 ) ) ;
#97 = AXIS2_PLACEMENT_3D ( 'NONE', #37, #181, #12 ) ;
#98 = PERSON ( 'UNSPECIFIED', 'UNSPECIFIED', 'UNSPECIFIED', ('UNSPECIFIED'), ('UNSPECIFIED'), ('UNSPECIFIED') ) ;
#99 =( NAMED_UNIT ( * ) PLANE_ANGLE_UNIT ( ) SI_UNIT ( $, .RADIAN. ) );
#100 = AXIS2_PLACEMENT_3D ( 'NONE', #131, #106, #200 ) ;
#101 = DIRECTION ( 'NONE',  ( 0.0000000000000000000, 1.000000000000000000, 0.0000000000000000000 ) ) ;
#102 = CARTESIAN_POINT ( 'NONE',  ( 7.865100606860567412E-14, -2.758705932638653108E-15, 22.52654344550095189 ) ) ;
#103 = FACE_BOUND ( 'NONE', #47, .T. ) ;
#104 = EDGE_LOOP ( 'NONE', ( #184 ) ) ;
#105 = CARTESIAN_POINT ( 'NONE',  ( 0.0000000000000000000, 0.0000000000000000000, 0.0000000000000000000 ) ) ;
#106 = DIRECTION ( 'NONE',  ( -3.491481338843133355E-15, 1.224646799147353207E-16, -1.000000000000000000 ) ) ;
#107 = CARTESIAN_POINT ( 'NONE',  ( 7.681258945454893382E-14, 1.727723269626458399E-32, 22.00000000000000000 ) ) ;
#108 = CARTESIAN_POINT ( 'NONE',  ( 2.199633243471174140E-13, 1.199807826129474591E-32, 63.00000000000000000 ) ) ;
#109 = CC_DESIGN_APPROVAL ( #146, ( #17 ) ) ;
#110 = EDGE_CURVE ( 'NONE', #59, #59, #243, .T. ) ;
#111 = DIRECTION ( 'NONE',  ( -3.491481338843133355E-15, 1.224646799147353207E-16, -1.000000000000000000 ) ) ;
#112 = CC_DESIGN_DATE_AND_TIME_ASSIGNMENT ( #4, #225, ( #88 ) ) ;
#113 = AXIS2_PLACEMENT_3D ( 'NONE', #71, #179, #166 ) ;
#114 = ORGANIZATION ( 'UNSPECIFIED', 'UNSPECIFIED', '' ) ;
#115 = EDGE_CURVE ( 'NONE', #209, #209, #72, .T. ) ;
#116 = AXIS2_PLACEMENT_3D ( 'NONE', #134, #34, #164 ) ;
#117 = ADVANCED_FACE ( 'NONE', ( #220, #217 ), #30, .T. ) ;
#118 = DIRECTION ( 'NONE',  ( 4.179535469590360450E-31, 1.000000000000000000, 1.176434648964307396E-16 ) ) ;
#119 =( NAMED_UNIT ( * ) SI_UNIT ( $, .STERADIAN. ) SOLID_ANGLE_UNIT ( ) );
#120 = PERSON_AND_ORGANIZATION_ROLE ( 'design_owner' ) ;
#121 = LOCAL_TIME ( 15, 23, 4.000000000000000000, #94 ) ;
#122 = CC_DESIGN_PERSON_AND_ORGANIZATION_ASSIGNMENT ( #183, #157, ( #26 ) ) ;
#123 = PERSON_AND_ORGANIZATION_ROLE ( 'creator' ) ;
#124 = VERTEX_POINT ( 'NONE', #232 ) ;
#125 = CYLINDRICAL_SURFACE ( 'NONE', #156, 1.999999999999997335 ) ;
#126 = APPLICATION_CONTEXT ( 'configuration controlled 3d designs of mechanical parts and assemblies' ) ;
#127 = EDGE_LOOP ( 'NONE', ( #149 ) ) ;
#128 = FACE_OUTER_BOUND ( 'NONE', #84, .T. ) ;
#129 = AXIS2_PLACEMENT_3D ( 'NONE', #175, #6, #214 ) ;
#130 = EDGE_LOOP ( 'NONE', ( #49 ) ) ;
#131 = CARTESIAN_POINT ( 'NONE',  ( 2.185667318115801607E-13, -7.666288962662431950E-15, 62.60000000000000142 ) ) ;
#132 = APPROVAL_STATUS ( 'not_yet_approved' ) ;
#133 = CARTESIAN_POINT ( 'NONE',  ( 1.047444401652939218E-15, -3.673940397442057033E-17, 0.2999999999999997669 ) ) ;
#134 = CARTESIAN_POINT ( 'NONE',  ( 7.681258945454893382E-14, -2.694222958124176809E-15, 22.00000000000000000 ) ) ;
#135 = CIRCLE ( 'NONE', #226, 1.600000000000000089 ) ;
#136 = PERSON_AND_ORGANIZATION_ROLE ( 'creator' ) ;
#137 = CC_DESIGN_PERSON_AND_ORGANIZATION_ASSIGNMENT ( #231, #120, ( #211 ) ) ;
#138 = AXIS2_PLACEMENT_3D ( 'NONE', #50, #187, #237 ) ;
#139 = DIRECTION ( 'NONE',  ( -3.491481338843133355E-15, 1.224646799147353207E-16, -1.000000000000000000 ) ) ;
#140 = ADVANCED_FACE ( 'NONE', ( #68 ), #31, .F. ) ;
#141 = AXIS2_PLACEMENT_3D ( 'NONE', #53, #215, #194 ) ;
#142 = COORDINATED_UNIVERSAL_TIME_OFFSET ( 1, 0, .AHEAD. ) ;
#143 =( LENGTH_UNIT ( ) NAMED_UNIT ( * ) SI_UNIT ( .MILLI., .METRE. ) );
#144 = DATE_AND_TIME ( #60, #230 ) ;
#145 = APPLICATION_PROTOCOL_DEFINITION ( 'international standard', 'config_control_design', 1994, #126 ) ;
#146 = APPROVAL ( #132, 'UNSPECIFIED' ) ;
#147 = DIRECTION ( 'NONE',  ( -3.491481338843133355E-15, 1.224646799147353207E-16, -1.000000000000000000 ) ) ;
#148 = MANIFOLD_SOLID_BREP ( 'Corps-Déplacer/Copier1[2]', #235 ) ;
#149 = ORIENTED_EDGE ( 'NONE', *, *, #115, .F. ) ;
#150 = DIRECTION ( 'NONE',  ( -3.491481338843133355E-15, 1.224646799147353207E-16, -1.000000000000000000 ) ) ;
#151 = CIRCLE ( 'NONE', #113, 2.304000000000002935 ) ;
#152 = DIRECTION ( 'NONE',  ( 3.491481338843133355E-15, -1.224646799147353207E-16, 1.000000000000000000 ) ) ;
#153 = DATE_AND_TIME ( #54, #121 ) ;
#154 = MANIFOLD_SOLID_BREP ( 'Corps-Déplacer/Copier1[1]', #38 ) ;
#155 = DIRECTION ( 'NONE',  ( -3.491481338843133355E-15, 1.224646799147353207E-16, -1.000000000000000000 ) ) ;
#156 = AXIS2_PLACEMENT_3D ( 'NONE', #185, #182, #241 ) ;
#157 = PERSON_AND_ORGANIZATION_ROLE ( 'design_supplier' ) ;
#158 = LOCAL_TIME ( 15, 23, 4.000000000000000000, #221 ) ;
#159 =( GEOMETRIC_REPRESENTATION_CONTEXT ( 3 ) GLOBAL_UNCERTAINTY_ASSIGNED_CONTEXT ( ( #229 ) ) GLOBAL_UNIT_ASSIGNED_CONTEXT ( ( #143, #99, #119 ) ) REPRESENTATION_CONTEXT ( 'NONE', 'WORKASPACE' ) );
#160 = CARTESIAN_POINT ( 'NONE',  ( 1.047444401652940007E-15, 2.303999999999997161, 0.3000000000000000444 ) ) ;
#161 = EDGE_CURVE ( 'NONE', #80, #80, #151, .T. ) ;
#162 = APPROVAL_ROLE ( '' ) ;
#163 = EDGE_LOOP ( 'NONE', ( #219 ) ) ;
#164 = DIRECTION ( 'NONE',  ( 0.0000000000000000000, 1.000000000000000000, 0.0000000000000000000 ) ) ;
#165 = EDGE_LOOP ( 'NONE', ( #233 ) ) ;
#166 = DIRECTION ( 'NONE',  ( 0.0000000000000000000, 1.000000000000000000, 0.0000000000000000000 ) ) ;
#167 = PLANE ( 'NONE',  #97 ) ;
#168 = PERSON_AND_ORGANIZATION_ROLE ( 'classification_officer' ) ;
#169 = FACE_OUTER_BOUND ( 'NONE', #240, .T. ) ;
#170 = APPROVAL_ROLE ( '' ) ;
#171 = SHAPE_DEFINITION_REPRESENTATION ( #44, #198 ) ;
#172 = PERSON_AND_ORGANIZATION ( #98, #114 ) ;
#173 = ADVANCED_FACE ( 'NONE', ( #202, #128 ), #176, .T. ) ;
#174 = AXIS2_PLACEMENT_3D ( 'NONE', #107, #222, #52 ) ;
#175 = CARTESIAN_POINT ( 'NONE',  ( 0.0000000000000000000, 0.0000000000000000000, 0.0000000000000000000 ) ) ;
#176 = CONICAL_SURFACE ( 'NONE', #138, 2.303999999999997161, 0.7853981633974423948 ) ;
#177 = CARTESIAN_POINT ( 'NONE',  ( 2.199633243471174140E-13, 1.599999999999992317, 63.00000000000000000 ) ) ;
#178 = DESIGN_CONTEXT ( 'detailed design', #126, 'design' ) ;
#179 = DIRECTION ( 'NONE',  ( -3.491481338843133355E-15, 1.224646799147353207E-16, -1.000000000000000000 ) ) ;
#180 = ORIENTED_EDGE ( 'NONE', *, *, #189, .F. ) ;
#181 = DIRECTION ( 'NONE',  ( 3.491481338843133355E-15, -1.224646799147353207E-16, 1.000000000000000000 ) ) ;
#182 = DIRECTION ( 'NONE',  ( -3.491481338843133355E-15, 1.224646799147353207E-16, -1.000000000000000000 ) ) ;
#183 = PERSON_AND_ORGANIZATION ( #98, #114 ) ;
#184 = ORIENTED_EDGE ( 'NONE', *, *, #161, .T. ) ;
#185 = CARTESIAN_POINT ( 'NONE',  ( 0.0000000000000000000, 0.0000000000000000000, 0.0000000000000000000 ) ) ;
#186 = CALENDAR_DATE ( 2021, 30, 11 ) ;
#187 = DIRECTION ( 'NONE',  ( 3.491481338843133355E-15, -1.224646799147353207E-16, 1.000000000000000000 ) ) ;
#188 = LOCAL_TIME ( 15, 23, 4.000000000000000000, #142 ) ;
#189 = EDGE_CURVE ( 'NONE', #40, #40, #207, .T. ) ;
#190 = COORDINATED_UNIVERSAL_TIME_OFFSET ( 1, 0, .AHEAD. ) ;
#191 = APPROVAL_STATUS ( 'not_yet_approved' ) ;
#192 = CC_DESIGN_PERSON_AND_ORGANIZATION_ASSIGNMENT ( #42, #123, ( #88 ) ) ;
#193 = EDGE_LOOP ( 'NONE', ( #28 ) ) ;
#194 = DIRECTION ( 'NONE',  ( 4.275831445896958607E-31, 1.000000000000000000, 1.224646799147353454E-16 ) ) ;
#195 = AXIS2_PLACEMENT_3D ( 'NONE', #102, #23, #101 ) ;
#196 = ORIENTED_EDGE ( 'NONE', *, *, #115, .T. ) ;
#197 = PLANE ( 'NONE',  #76 ) ;
#198 = ADVANCED_BREP_SHAPE_REPRESENTATION ( '969442', ( #154, #148, #129 ), #159 ) ;
#199 = ORIENTED_EDGE ( 'NONE', *, *, #189, .T. ) ;
#200 = DIRECTION ( 'NONE',  ( 0.0000000000000000000, 1.000000000000000000, 0.0000000000000000000 ) ) ;
#201 = COORDINATED_UNIVERSAL_TIME_OFFSET ( 1, 0, .AHEAD. ) ;
#202 = FACE_BOUND ( 'NONE', #127, .T. ) ;
#203 = PERSON_AND_ORGANIZATION ( #98, #114 ) ;
#204 = CC_DESIGN_DATE_AND_TIME_ASSIGNMENT ( #242, #32, ( #17 ) ) ;
#205 = AXIS2_PLACEMENT_3D ( 'NONE', #133, #139, #118 ) ;
#206 = APPROVAL_DATE_TIME ( #227, #146 ) ;
#207 = CIRCLE ( 'NONE', #100, 2.000000000000000000 ) ;
#208 = AXIS2_PLACEMENT_3D ( 'NONE', #67, #150, #16 ) ;
#209 = VERTEX_POINT ( 'NONE', #77 ) ;
#210 = ADVANCED_FACE ( 'NONE', ( #93, #103 ), #218, .T. ) ;
#211 = PRODUCT ( '969442', '969442', '', ( #78 ) ) ;
#212 = APPROVAL_DATE_TIME ( #144, #29 ) ;
#213 = CC_DESIGN_SECURITY_CLASSIFICATION ( #17, ( #26 ) ) ;
#214 = DIRECTION ( 'NONE',  ( 1.000000000000000000, 0.0000000000000000000, 0.0000000000000000000 ) ) ;
#215 = DIRECTION ( 'NONE',  ( -3.491481338843133355E-15, 1.224646799147353207E-16, -1.000000000000000000 ) ) ;
#216 = EDGE_LOOP ( 'NONE', ( #11 ) ) ;
#217 = FACE_OUTER_BOUND ( 'NONE', #104, .T. ) ;
#218 = CONICAL_SURFACE ( 'NONE', #195, 1.999999999999994893, 0.5235987755982989267 ) ;
#219 = ORIENTED_EDGE ( 'NONE', *, *, #161, .F. ) ;
#220 = FACE_OUTER_BOUND ( 'NONE', #165, .T. ) ;
#221 = COORDINATED_UNIVERSAL_TIME_OFFSET ( 1, 0, .AHEAD. ) ;
#222 = DIRECTION ( 'NONE',  ( 3.491481338843133355E-15, -1.224646799147353207E-16, 1.000000000000000000 ) ) ;
#223 = DIRECTION ( 'NONE',  ( 4.275831445896958607E-31, 1.000000000000000000, 1.224646799147353207E-16 ) ) ;
#224 = CONICAL_SURFACE ( 'NONE', #208, 1.600000000000000089, 0.7853981633974512766 ) ;
#225 = DATE_TIME_ROLE ( 'creation_date' ) ;
#226 = AXIS2_PLACEMENT_3D ( 'NONE', #14, #147, #91 ) ;
#227 = DATE_AND_TIME ( #89, #2 ) ;
#228 = CC_DESIGN_APPROVAL ( #63, ( #26 ) ) ;
#229 = UNCERTAINTY_MEASURE_WITH_UNIT (LENGTH_MEASURE( 1.000000000000000082E-05 ), #143, 'distance_accuracy_value', 'NONE');
#230 = LOCAL_TIME ( 15, 23, 4.000000000000000000, #190 ) ;
#231 = PERSON_AND_ORGANIZATION ( #98, #114 ) ;
#232 = CARTESIAN_POINT ( 'NONE',  ( 7.681258945454893382E-14, 2.304000000000000270, 22.00000000000000000 ) ) ;
#233 = ORIENTED_EDGE ( 'NONE', *, *, #22, .F. ) ;
#234 = DIRECTION ( 'NONE',  ( 0.0000000000000000000, 1.000000000000000000, 0.0000000000000000000 ) ) ;
#235 = CLOSED_SHELL ( 'NONE', ( #27, #173, #117, #3 ) ) ;
#236 = ORIENTED_EDGE ( 'NONE', *, *, #62, .F. ) ;
#237 = DIRECTION ( 'NONE',  ( -4.179535469590360450E-31, -1.000000000000000000, -1.176434648964307396E-16 ) ) ;
#238 = DIRECTION ( 'NONE',  ( -3.491481338843133355E-15, 1.224646799147353207E-16, -1.000000000000000000 ) ) ;
#239 = AXIS2_PLACEMENT_3D ( 'NONE', #108, #238, #223 ) ;
#240 = EDGE_LOOP ( 'NONE', ( #199 ) ) ;
#241 = DIRECTION ( 'NONE',  ( 4.275831445896959482E-31, 1.000000000000000000, 1.224646799147353454E-16 ) ) ;
#242 = DATE_AND_TIME ( #186, #158 ) ;
#243 = CIRCLE ( 'NONE', #39, 1.999999999999994893 ) ;
ENDSEC;
END-ISO-10303-21;
