ISO-10303-21;
HEADER;
FILE_DESCRIPTION (( 'STEP AP203' ),
    '1' );
FILE_NAME ('969441.step',
    '2021-11-30T14:23:04',
    ( '' ),
    ( '' ),
    'SwSTEP 2.0',
    'SolidWorks 2019',
    '' );
FILE_SCHEMA (( 'CONFIG_CONTROL_DESIGN' ));
ENDSEC;

DATA;
#1 = DIRECTION ( 'NONE',  ( -3.491481338843133355E-15, 1.224646799147353207E-16, -1.000000000000000000 ) ) ;
#2 = AXIS2_PLACEMENT_3D ( 'NONE', #165, #153, #102 ) ;
#3 = VERTEX_POINT ( 'NONE', #202 ) ;
#4 = EDGE_CURVE ( 'NONE', #142, #142, #227, .T. ) ;
#5 = ORIENTED_EDGE ( 'NONE', *, *, #219, .F. ) ;
#6 = DIRECTION ( 'NONE',  ( 0.0000000000000000000, 0.0000000000000000000, 1.000000000000000000 ) ) ;
#7 = CARTESIAN_POINT ( 'NONE',  ( 1.047444401652939218E-15, -3.673940397442057649E-17, 0.2999999999999998224 ) ) ;
#8 = SECURITY_CLASSIFICATION ( '', '', #201 ) ;
#9 = CALENDAR_DATE ( 2021, 30, 11 ) ;
#10 = CARTESIAN_POINT ( 'NONE',  ( 1.047444401652939218E-15, -3.673940397442057649E-17, 0.2999999999999998224 ) ) ;
#11 = DIRECTION ( 'NONE',  ( 3.491481338843133355E-15, -1.224646799147353207E-16, 1.000000000000000000 ) ) ;
#12 = AXIS2_PLACEMENT_3D ( 'NONE', #184, #11, #200 ) ;
#13 = APPROVAL_DATE_TIME ( #185, #52 ) ;
#14 = CARTESIAN_POINT ( 'NONE',  ( 7.681258945454893382E-14, 2.254000000000000892, 22.00000000000000000 ) ) ;
#15 = CARTESIAN_POINT ( 'NONE',  ( 0.0000000000000000000, 0.0000000000000000000, 0.0000000000000000000 ) ) ;
#16 = CYLINDRICAL_SURFACE ( 'NONE', #172, 2.254000000000000448 ) ;
#17 = DIRECTION ( 'NONE',  ( 4.275831445896959482E-31, 1.000000000000000000, 1.224646799147353454E-16 ) ) ;
#18 = APPROVAL_ROLE ( '' ) ;
#19 = CONICAL_SURFACE ( 'NONE', #43, 1.999999999999994893, 0.5235987755982971503 ) ;
#20 = AXIS2_PLACEMENT_3D ( 'NONE', #44, #6, #138 ) ;
#21 = CIRCLE ( 'NONE', #129, 2.254000000000003556 ) ;
#22 = ADVANCED_BREP_SHAPE_REPRESENTATION ( '969441', ( #87, #86, #20 ), #81 ) ;
#23 = ORIENTED_EDGE ( 'NONE', *, *, #175, .T. ) ;
#24 = ADVANCED_FACE ( 'NONE', ( #83, #33 ), #178, .T. ) ;
#25 = DATE_AND_TIME ( #9, #209 ) ;
#26 = AXIS2_PLACEMENT_3D ( 'NONE', #15, #110, #17 ) ;
#27 = DIRECTION ( 'NONE',  ( 0.0000000000000000000, 1.000000000000000000, 0.0000000000000000000 ) ) ;
#28 = DIRECTION ( 'NONE',  ( -3.491481338843133355E-15, 1.224646799147353207E-16, -1.000000000000000000 ) ) ;
#29 = CALENDAR_DATE ( 2021, 30, 11 ) ;
#30 = PERSON_AND_ORGANIZATION_ROLE ( 'creator' ) ;
#31 = PRODUCT ( '969441', '969441', '', ( #211 ) ) ;
#32 = FACE_OUTER_BOUND ( 'NONE', #42, .T. ) ;
#33 = FACE_OUTER_BOUND ( 'NONE', #213, .T. ) ;
#34 = DIRECTION ( 'NONE',  ( 0.0000000000000000000, 1.000000000000000000, 0.0000000000000000000 ) ) ;
#35 = PERSON_AND_ORGANIZATION ( #113, #148 ) ;
#36 = ADVANCED_FACE ( 'NONE', ( #64, #85 ), #233, .T. ) ;
#37 = CC_DESIGN_PERSON_AND_ORGANIZATION_ASSIGNMENT ( #35, #79, ( #223 ) ) ;
#38 = FACE_BOUND ( 'NONE', #232, .T. ) ;
#39 = APPROVAL_PERSON_ORGANIZATION ( #207, #52, #111 ) ;
#40 = APPROVAL_PERSON_ORGANIZATION ( #194, #240, #199 ) ;
#41 =( NAMED_UNIT ( * ) PLANE_ANGLE_UNIT ( ) SI_UNIT ( $, .RADIAN. ) );
#42 = EDGE_LOOP ( 'NONE', ( #58 ) ) ;
#43 = AXIS2_PLACEMENT_3D ( 'NONE', #96, #70, #173 ) ;
#44 = CARTESIAN_POINT ( 'NONE',  ( 0.0000000000000000000, 0.0000000000000000000, 0.0000000000000000000 ) ) ;
#45 = DATE_AND_TIME ( #29, #192 ) ;
#46 = VERTEX_POINT ( 'NONE', #100 ) ;
#47 = FACE_OUTER_BOUND ( 'NONE', #56, .T. ) ;
#48 = DIRECTION ( 'NONE',  ( 4.275831445896958607E-31, 1.000000000000000000, 1.224646799147353207E-16 ) ) ;
#49 = CONICAL_SURFACE ( 'NONE', #107, 1.600000000000000089, 0.7853981633974512766 ) ;
#50 = EDGE_CURVE ( 'NONE', #146, #146, #89, .T. ) ;
#51 = PERSON_AND_ORGANIZATION ( #113, #148 ) ;
#52 = APPROVAL ( #221, 'UNSPECIFIED' ) ;
#53 = FACE_BOUND ( 'NONE', #228, .T. ) ;
#54 = CARTESIAN_POINT ( 'NONE',  ( 2.199633243471174140E-13, 1.199807826129474591E-32, 63.00000000000000000 ) ) ;
#55 = CC_DESIGN_SECURITY_CLASSIFICATION ( #8, ( #149 ) ) ;
#56 = EDGE_LOOP ( 'NONE', ( #156 ) ) ;
#57 = AXIS2_PLACEMENT_3D ( 'NONE', #60, #28, #162 ) ;
#58 = ORIENTED_EDGE ( 'NONE', *, *, #174, .T. ) ;
#59 = APPLICATION_PROTOCOL_DEFINITION ( 'international standard', 'config_control_design', 1994, #226 ) ;
#60 = CARTESIAN_POINT ( 'NONE',  ( 7.834863491497793631E-14, -2.748100180251404244E-15, 22.43994090512250850 ) ) ;
#61 = AXIS2_PLACEMENT_3D ( 'NONE', #10, #163, #208 ) ;
#62 = PERSON_AND_ORGANIZATION ( #113, #148 ) ;
#63 = CARTESIAN_POINT ( 'NONE',  ( -1.710569414459005214E-46, 1.954000000000000403, 0.0000000000000000000 ) ) ;
#64 = FACE_BOUND ( 'NONE', #99, .T. ) ;
#65 = APPLICATION_PROTOCOL_DEFINITION ( 'international standard', 'config_control_design', 1994, #193 ) ;
#66 = ADVANCED_FACE ( 'NONE', ( #47, #38 ), #19, .T. ) ;
#67 = SHAPE_DEFINITION_REPRESENTATION ( #182, #22 ) ;
#68 = LOCAL_TIME ( 15, 23, 4.000000000000000000, #166 ) ;
#69 = FACE_OUTER_BOUND ( 'NONE', #171, .T. ) ;
#70 = DIRECTION ( 'NONE',  ( -3.491481338843133355E-15, 1.224646799147353207E-16, -1.000000000000000000 ) ) ;
#71 = DIRECTION ( 'NONE',  ( 0.0000000000000000000, 1.000000000000000000, 0.0000000000000000000 ) ) ;
#72 = PRODUCT_RELATED_PRODUCT_CATEGORY ( 'detail', '', ( #31 ) ) ;
#73 = UNCERTAINTY_MEASURE_WITH_UNIT (LENGTH_MEASURE( 1.000000000000000082E-05 ), #196, 'distance_accuracy_value', 'NONE');
#74 = ORIENTED_EDGE ( 'NONE', *, *, #140, .T. ) ;
#75 = EDGE_LOOP ( 'NONE', ( #23 ) ) ;
#76 = VERTEX_POINT ( 'NONE', #176 ) ;
#77 = LOCAL_TIME ( 15, 23, 4.000000000000000000, #144 ) ;
#78 = DIRECTION ( 'NONE',  ( 3.491481338843133355E-15, -1.224646799147353207E-16, 1.000000000000000000 ) ) ;
#79 = PERSON_AND_ORGANIZATION_ROLE ( 'creator' ) ;
#80 = CARTESIAN_POINT ( 'NONE',  ( 1.047444401652940204E-15, 2.253999999999997339, 0.3000000000000000999 ) ) ;
#81 =( GEOMETRIC_REPRESENTATION_CONTEXT ( 3 ) GLOBAL_UNCERTAINTY_ASSIGNED_CONTEXT ( ( #73 ) ) GLOBAL_UNIT_ASSIGNED_CONTEXT ( ( #196, #41, #214 ) ) REPRESENTATION_CONTEXT ( 'NONE', 'WORKASPACE' ) );
#82 = FACE_OUTER_BOUND ( 'NONE', #243, .T. ) ;
#83 = FACE_OUTER_BOUND ( 'NONE', #95, .T. ) ;
#84 = ADVANCED_FACE ( 'NONE', ( #135 ), #225, .F. ) ;
#85 = FACE_OUTER_BOUND ( 'NONE', #75, .T. ) ;
#86 = MANIFOLD_SOLID_BREP ( 'Corps-Déplacer/Copier1[2]', #168 ) ;
#87 = MANIFOLD_SOLID_BREP ( 'Corps-Déplacer/Copier1[1]', #134 ) ;
#88 = COORDINATED_UNIVERSAL_TIME_OFFSET ( 1, 0, .AHEAD. ) ;
#89 = CIRCLE ( 'NONE', #116, 2.254000000000003556 ) ;
#90 = APPROVAL ( #188, 'UNSPECIFIED' ) ;
#91 = AXIS2_PLACEMENT_3D ( 'NONE', #104, #108, #183 ) ;
#92 = DIRECTION ( 'NONE',  ( 4.275831445896958607E-31, 1.000000000000000000, 1.224646799147353207E-16 ) ) ;
#93 = ADVANCED_FACE ( 'NONE', ( #150, #53 ), #49, .T. ) ;
#94 = FACE_OUTER_BOUND ( 'NONE', #122, .T. ) ;
#95 = EDGE_LOOP ( 'NONE', ( #97 ) ) ;
#96 = CARTESIAN_POINT ( 'NONE',  ( 7.834863491497793631E-14, -2.748100180251404244E-15, 22.43994090512250850 ) ) ;
#97 = ORIENTED_EDGE ( 'NONE', *, *, #4, .F. ) ;
#98 = APPROVAL_DATE_TIME ( #25, #240 ) ;
#99 = EDGE_LOOP ( 'NONE', ( #197 ) ) ;
#100 = CARTESIAN_POINT ( 'NONE',  ( 2.185667318115801607E-13, 1.999999999999992228, 62.60000000000000142 ) ) ;
#101 = CALENDAR_DATE ( 2021, 30, 11 ) ;
#102 = DIRECTION ( 'NONE',  ( -4.275831445896958607E-31, -1.000000000000000000, -1.224646799147353207E-16 ) ) ;
#103 = APPROVAL_PERSON_ORGANIZATION ( #215, #90, #18 ) ;
#104 = CARTESIAN_POINT ( 'NONE',  ( -8.354974645282660295E-31, 2.930530615321271014E-32, -2.392959845533929031E-16 ) ) ;
#105 = DATE_TIME_ROLE ( 'classification_date' ) ;
#106 = CARTESIAN_POINT ( 'NONE',  ( 7.681258945454893382E-14, -2.694222958124176809E-15, 22.00000000000000000 ) ) ;
#107 = AXIS2_PLACEMENT_3D ( 'NONE', #169, #242, #71 ) ;
#108 = DIRECTION ( 'NONE',  ( -3.491481338843133355E-15, 1.224646799147353207E-16, -1.000000000000000000 ) ) ;
#109 = PERSON_AND_ORGANIZATION ( #113, #148 ) ;
#110 = DIRECTION ( 'NONE',  ( -3.491481338843133355E-15, 1.224646799147353207E-16, -1.000000000000000000 ) ) ;
#111 = APPROVAL_ROLE ( '' ) ;
#112 = DATE_AND_TIME ( #101, #77 ) ;
#113 = PERSON ( 'UNSPECIFIED', 'UNSPECIFIED', 'UNSPECIFIED', ('UNSPECIFIED'), ('UNSPECIFIED'), ('UNSPECIFIED') ) ;
#114 = CARTESIAN_POINT ( 'NONE',  ( 7.681258945454893382E-14, 1.690229275059912232E-32, 22.00000000000000000 ) ) ;
#115 = CC_DESIGN_APPROVAL ( #90, ( #149 ) ) ;
#116 = AXIS2_PLACEMENT_3D ( 'NONE', #236, #143, #217 ) ;
#117 = ORIENTED_EDGE ( 'NONE', *, *, #175, .F. ) ;
#118 = EDGE_LOOP ( 'NONE', ( #5 ) ) ;
#119 = ADVANCED_FACE ( 'NONE', ( #94 ), #133, .F. ) ;
#120 = PERSON_AND_ORGANIZATION_ROLE ( 'design_owner' ) ;
#121 = AXIS2_PLACEMENT_3D ( 'NONE', #54, #1, #92 ) ;
#122 = EDGE_LOOP ( 'NONE', ( #230 ) ) ;
#123 = CC_DESIGN_PERSON_AND_ORGANIZATION_ASSIGNMENT ( #62, #198, ( #8 ) ) ;
#124 = APPROVAL_DATE_TIME ( #112, #90 ) ;
#125 = APPROVAL_STATUS ( 'not_yet_approved' ) ;
#126 = PLANE ( 'NONE',  #2 ) ;
#127 = DATE_AND_TIME ( #147, #68 ) ;
#128 = DIRECTION ( 'NONE',  ( -3.491481338843133355E-15, 1.224646799147353207E-16, -1.000000000000000000 ) ) ;
#129 = AXIS2_PLACEMENT_3D ( 'NONE', #106, #186, #27 ) ;
#130 = CARTESIAN_POINT ( 'NONE',  ( 2.199633243471174140E-13, -7.715274834628325378E-15, 63.00000000000000000 ) ) ;
#131 = AXIS2_PLACEMENT_3D ( 'NONE', #161, #235, #145 ) ;
#132 = CC_DESIGN_PERSON_AND_ORGANIZATION_ASSIGNMENT ( #158, #120, ( #31 ) ) ;
#133 = PLANE ( 'NONE',  #241 ) ;
#134 = CLOSED_SHELL ( 'NONE', ( #119, #66, #24, #93, #84 ) ) ;
#135 = FACE_OUTER_BOUND ( 'NONE', #195, .T. ) ;
#136 = EDGE_LOOP ( 'NONE', ( #177 ) ) ;
#137 = CC_DESIGN_DATE_AND_TIME_ASSIGNMENT ( #45, #160, ( #223 ) ) ;
#138 = DIRECTION ( 'NONE',  ( 1.000000000000000000, 0.0000000000000000000, 0.0000000000000000000 ) ) ;
#139 = DIRECTION ( 'NONE',  ( -4.275831445896958607E-31, -1.000000000000000000, -1.224646799147353207E-16 ) ) ;
#140 = EDGE_CURVE ( 'NONE', #3, #3, #190, .T. ) ;
#141 = CC_DESIGN_DATE_AND_TIME_ASSIGNMENT ( #127, #105, ( #8 ) ) ;
#142 = VERTEX_POINT ( 'NONE', #231 ) ;
#143 = DIRECTION ( 'NONE',  ( -3.491481338843133355E-15, 1.224646799147353207E-16, -1.000000000000000000 ) ) ;
#144 = COORDINATED_UNIVERSAL_TIME_OFFSET ( 1, 0, .AHEAD. ) ;
#145 = DIRECTION ( 'NONE',  ( 0.0000000000000000000, 1.000000000000000000, 0.0000000000000000000 ) ) ;
#146 = VERTEX_POINT ( 'NONE', #14 ) ;
#147 = CALENDAR_DATE ( 2021, 30, 11 ) ;
#148 = ORGANIZATION ( 'UNSPECIFIED', 'UNSPECIFIED', '' ) ;
#149 = PRODUCT_DEFINITION_FORMATION_WITH_SPECIFIED_SOURCE ( 'ANY', '', #31, .NOT_KNOWN. ) ;
#150 = FACE_OUTER_BOUND ( 'NONE', #118, .T. ) ;
#151 = ORIENTED_EDGE ( 'NONE', *, *, #4, .T. ) ;
#152 = ORIENTED_EDGE ( 'NONE', *, *, #224, .F. ) ;
#153 = DIRECTION ( 'NONE',  ( 3.491481338843133355E-15, -1.224646799147353207E-16, 1.000000000000000000 ) ) ;
#154 = ADVANCED_FACE ( 'NONE', ( #82, #206 ), #16, .T. ) ;
#155 = AXIS2_PLACEMENT_3D ( 'NONE', #7, #78, #159 ) ;
#156 = ORIENTED_EDGE ( 'NONE', *, *, #50, .F. ) ;
#157 = ORIENTED_EDGE ( 'NONE', *, *, #140, .F. ) ;
#158 = PERSON_AND_ORGANIZATION ( #113, #148 ) ;
#159 = DIRECTION ( 'NONE',  ( -4.272249211151814884E-31, -1.000000000000000000, -1.202531247211075562E-16 ) ) ;
#160 = DATE_TIME_ROLE ( 'creation_date' ) ;
#161 = CARTESIAN_POINT ( 'NONE',  ( 2.185667318115801607E-13, -7.666288962662431950E-15, 62.60000000000000142 ) ) ;
#162 = DIRECTION ( 'NONE',  ( 0.0000000000000000000, 1.000000000000000000, 0.0000000000000000000 ) ) ;
#163 = DIRECTION ( 'NONE',  ( -3.491481338843133355E-15, 1.224646799147353207E-16, -1.000000000000000000 ) ) ;
#164 = PLANE ( 'NONE',  #12 ) ;
#165 = CARTESIAN_POINT ( 'NONE',  ( 7.681258945454893382E-14, 1.690229275059912232E-32, 22.00000000000000000 ) ) ;
#166 = COORDINATED_UNIVERSAL_TIME_OFFSET ( 1, 0, .AHEAD. ) ;
#167 = ADVANCED_FACE ( 'NONE', ( #32 ), #164, .F. ) ;
#168 = CLOSED_SHELL ( 'NONE', ( #167, #36, #154, #187 ) ) ;
#169 = CARTESIAN_POINT ( 'NONE',  ( 2.199633243471174140E-13, -7.715274834628325378E-15, 63.00000000000000000 ) ) ;
#170 = DIRECTION ( 'NONE',  ( 3.491481338843133355E-15, -1.224646799147353207E-16, 1.000000000000000000 ) ) ;
#171 = EDGE_LOOP ( 'NONE', ( #152 ) ) ;
#172 = AXIS2_PLACEMENT_3D ( 'NONE', #204, #128, #48 ) ;
#173 = DIRECTION ( 'NONE',  ( 0.0000000000000000000, 1.000000000000000000, 0.0000000000000000000 ) ) ;
#174 = EDGE_CURVE ( 'NONE', #237, #237, #191, .T. ) ;
#175 = EDGE_CURVE ( 'NONE', #216, #216, #220, .T. ) ;
#176 = CARTESIAN_POINT ( 'NONE',  ( 7.681258945454893382E-14, 2.254000000000000892, 22.00000000000000000 ) ) ;
#177 = ORIENTED_EDGE ( 'NONE', *, *, #224, .T. ) ;
#178 = CYLINDRICAL_SURFACE ( 'NONE', #26, 1.999999999999997335 ) ;
#179 = LOCAL_TIME ( 15, 23, 4.000000000000000000, #180 ) ;
#180 = COORDINATED_UNIVERSAL_TIME_OFFSET ( 1, 0, .AHEAD. ) ;
#181 = COORDINATED_UNIVERSAL_TIME_OFFSET ( 1, 0, .AHEAD. ) ;
#182 = PRODUCT_DEFINITION_SHAPE ( 'NONE', 'NONE',  #223 ) ;
#183 = DIRECTION ( 'NONE',  ( 4.275831445896958607E-31, 1.000000000000000000, 1.224646799147353454E-16 ) ) ;
#184 = CARTESIAN_POINT ( 'NONE',  ( -4.177487322641330147E-31, 1.465265307660635507E-32, -1.196479922766964516E-16 ) ) ;
#185 = DATE_AND_TIME ( #238, #179 ) ;
#186 = DIRECTION ( 'NONE',  ( -3.491481338843133355E-15, 1.224646799147353207E-16, -1.000000000000000000 ) ) ;
#187 = ADVANCED_FACE ( 'NONE', ( #69 ), #126, .T. ) ;
#188 = APPROVAL_STATUS ( 'not_yet_approved' ) ;
#189 = CC_DESIGN_PERSON_AND_ORGANIZATION_ASSIGNMENT ( #51, #234, ( #149 ) ) ;
#190 = CIRCLE ( 'NONE', #205, 1.600000000000000089 ) ;
#191 = CIRCLE ( 'NONE', #91, 1.954000000000000403 ) ;
#192 = LOCAL_TIME ( 15, 23, 4.000000000000000000, #88 ) ;
#193 = APPLICATION_CONTEXT ( 'configuration controlled 3d designs of mechanical parts and assemblies' ) ;
#194 = PERSON_AND_ORGANIZATION ( #113, #148 ) ;
#195 = EDGE_LOOP ( 'NONE', ( #157 ) ) ;
#196 =( LENGTH_UNIT ( ) NAMED_UNIT ( * ) SI_UNIT ( .MILLI., .METRE. ) );
#197 = ORIENTED_EDGE ( 'NONE', *, *, #174, .F. ) ;
#198 = PERSON_AND_ORGANIZATION_ROLE ( 'classification_officer' ) ;
#199 = APPROVAL_ROLE ( '' ) ;
#200 = DIRECTION ( 'NONE',  ( -4.275831445896958607E-31, -1.000000000000000000, -1.224646799147353207E-16 ) ) ;
#201 = SECURITY_CLASSIFICATION_LEVEL ( 'unclassified' ) ;
#202 = CARTESIAN_POINT ( 'NONE',  ( 2.199633243471174140E-13, 1.599999999999992317, 63.00000000000000000 ) ) ;
#203 = CC_DESIGN_PERSON_AND_ORGANIZATION_ASSIGNMENT ( #109, #30, ( #149 ) ) ;
#204 = CARTESIAN_POINT ( 'NONE',  ( 0.0000000000000000000, 0.0000000000000000000, 0.0000000000000000000 ) ) ;
#205 = AXIS2_PLACEMENT_3D ( 'NONE', #130, #218, #34 ) ;
#206 = FACE_OUTER_BOUND ( 'NONE', #136, .T. ) ;
#207 = PERSON_AND_ORGANIZATION ( #113, #148 ) ;
#208 = DIRECTION ( 'NONE',  ( 4.272249211151814884E-31, 1.000000000000000000, 1.202531247211075562E-16 ) ) ;
#209 = LOCAL_TIME ( 15, 23, 4.000000000000000000, #181 ) ;
#210 = CC_DESIGN_APPROVAL ( #52, ( #8 ) ) ;
#211 = MECHANICAL_CONTEXT ( 'NONE', #193, 'mechanical' ) ;
#212 = ORIENTED_EDGE ( 'NONE', *, *, #219, .T. ) ;
#213 = EDGE_LOOP ( 'NONE', ( #212 ) ) ;
#214 =( NAMED_UNIT ( * ) SI_UNIT ( $, .STERADIAN. ) SOLID_ANGLE_UNIT ( ) );
#215 = PERSON_AND_ORGANIZATION ( #113, #148 ) ;
#216 = VERTEX_POINT ( 'NONE', #80 ) ;
#217 = DIRECTION ( 'NONE',  ( 0.0000000000000000000, 1.000000000000000000, 0.0000000000000000000 ) ) ;
#218 = DIRECTION ( 'NONE',  ( -3.491481338843133355E-15, 1.224646799147353207E-16, -1.000000000000000000 ) ) ;
#219 = EDGE_CURVE ( 'NONE', #46, #46, #222, .T. ) ;
#220 = CIRCLE ( 'NONE', #61, 2.253999999999997339 ) ;
#221 = APPROVAL_STATUS ( 'not_yet_approved' ) ;
#222 = CIRCLE ( 'NONE', #131, 2.000000000000000000 ) ;
#223 = PRODUCT_DEFINITION ( 'UNKNOWN', '', #149, #229 ) ;
#224 = EDGE_CURVE ( 'NONE', #76, #76, #21, .T. ) ;
#225 = PLANE ( 'NONE',  #121 ) ;
#226 = APPLICATION_CONTEXT ( 'configuration controlled 3d designs of mechanical parts and assemblies' ) ;
#227 = CIRCLE ( 'NONE', #57, 1.999999999999994893 ) ;
#228 = EDGE_LOOP ( 'NONE', ( #74 ) ) ;
#229 = DESIGN_CONTEXT ( 'detailed design', #226, 'design' ) ;
#230 = ORIENTED_EDGE ( 'NONE', *, *, #50, .T. ) ;
#231 = CARTESIAN_POINT ( 'NONE',  ( 7.834863491497793631E-14, 1.999999999999992228, 22.43994090512250850 ) ) ;
#232 = EDGE_LOOP ( 'NONE', ( #151 ) ) ;
#233 = CONICAL_SURFACE ( 'NONE', #155, 2.253999999999997339, 0.7853981633974430610 ) ;
#234 = PERSON_AND_ORGANIZATION_ROLE ( 'design_supplier' ) ;
#235 = DIRECTION ( 'NONE',  ( -3.491481338843133355E-15, 1.224646799147353207E-16, -1.000000000000000000 ) ) ;
#236 = CARTESIAN_POINT ( 'NONE',  ( 7.681258945454893382E-14, -2.694222958124176809E-15, 22.00000000000000000 ) ) ;
#237 = VERTEX_POINT ( 'NONE', #63 ) ;
#238 = CALENDAR_DATE ( 2021, 30, 11 ) ;
#239 = CC_DESIGN_APPROVAL ( #240, ( #223 ) ) ;
#240 = APPROVAL ( #125, 'UNSPECIFIED' ) ;
#241 = AXIS2_PLACEMENT_3D ( 'NONE', #114, #170, #139 ) ;
#242 = DIRECTION ( 'NONE',  ( -3.491481338843133355E-15, 1.224646799147353207E-16, -1.000000000000000000 ) ) ;
#243 = EDGE_LOOP ( 'NONE', ( #117 ) ) ;
ENDSEC;
END-ISO-10303-21;
