ISO-10303-21;
HEADER;
FILE_DESCRIPTION (( 'STEP AP203' ),
    '1' );
FILE_NAME ('969440.step',
    '2021-11-30T14:08:55',
    ( '' ),
    ( '' ),
    'SwSTEP 2.0',
    'SolidWorks 2019',
    '' );
FILE_SCHEMA (( 'CONFIG_CONTROL_DESIGN' ));
ENDSEC;

DATA;
#1 = DIRECTION ( 'NONE',  ( -4.275831445896958607E-31, -1.000000000000000000, -1.224646799147353207E-16 ) ) ;
#2 =( NAMED_UNIT ( * ) PLANE_ANGLE_UNIT ( ) SI_UNIT ( $, .RADIAN. ) );
#3 = CARTESIAN_POINT ( 'NONE',  ( 2.199633243471174140E-13, 1.399999999999993250, 63.00000000000000000 ) ) ;
#4 = SECURITY_CLASSIFICATION ( '', '', #156 ) ;
#5 = FACE_OUTER_BOUND ( 'NONE', #233, .T. ) ;
#6 = PRODUCT_RELATED_PRODUCT_CATEGORY ( 'detail', '', ( #165 ) ) ;
#7 = EDGE_LOOP ( 'NONE', ( #194 ) ) ;
#8 = CARTESIAN_POINT ( 'NONE',  ( 0.0000000000000000000, 0.0000000000000000000, 0.0000000000000000000 ) ) ;
#9 = PERSON_AND_ORGANIZATION_ROLE ( 'classification_officer' ) ;
#10 = EDGE_CURVE ( 'NONE', #18, #18, #243, .T. ) ;
#11 = PERSON_AND_ORGANIZATION ( #63, #145 ) ;
#12 = CC_DESIGN_APPROVAL ( #97, ( #221 ) ) ;
#13 = CC_DESIGN_DATE_AND_TIME_ASSIGNMENT ( #157, #86, ( #4 ) ) ;
#14 = DATE_AND_TIME ( #120, #54 ) ;
#15 = FACE_OUTER_BOUND ( 'NONE', #87, .T. ) ;
#16 = CARTESIAN_POINT ( 'NONE',  ( 7.681258945454893382E-14, 2.203999999999999293, 22.00000000000000000 ) ) ;
#17 = DATE_AND_TIME ( #179, #31 ) ;
#18 = VERTEX_POINT ( 'NONE', #124 ) ;
#19 = DIRECTION ( 'NONE',  ( 4.275831445896958607E-31, 1.000000000000000000, 1.224646799147352961E-16 ) ) ;
#20 = FACE_OUTER_BOUND ( 'NONE', #131, .T. ) ;
#21 = DIRECTION ( 'NONE',  ( -3.491481338843133355E-15, 1.224646799147353207E-16, -1.000000000000000000 ) ) ;
#22 = MANIFOLD_SOLID_BREP ( 'Corps-Déplacer/Copier1[2]', #222 ) ;
#23 = AXIS2_PLACEMENT_3D ( 'NONE', #71, #174, #33 ) ;
#24 = ORIENTED_EDGE ( 'NONE', *, *, #39, .F. ) ;
#25 = DIRECTION ( 'NONE',  ( -4.369169565306801227E-31, -1.000000000000000000, -1.229811901639638875E-16 ) ) ;
#26 = ORIENTED_EDGE ( 'NONE', *, *, #50, .F. ) ;
#27 = CC_DESIGN_PERSON_AND_ORGANIZATION_ASSIGNMENT ( #242, #143, ( #165 ) ) ;
#28 = EDGE_LOOP ( 'NONE', ( #116 ) ) ;
#29 = CIRCLE ( 'NONE', #161, 1.904000000000001025 ) ;
#30 = CC_DESIGN_PERSON_AND_ORGANIZATION_ASSIGNMENT ( #11, #117, ( #94 ) ) ;
#31 = LOCAL_TIME ( 15, 8, 55.00000000000000000, #109 ) ;
#32 = ORIENTED_EDGE ( 'NONE', *, *, #122, .T. ) ;
#33 = DIRECTION ( 'NONE',  ( 0.0000000000000000000, 1.000000000000000000, 0.0000000000000000000 ) ) ;
#34 = APPROVAL_STATUS ( 'not_yet_approved' ) ;
#35 = CARTESIAN_POINT ( 'NONE',  ( 7.681258945454893382E-14, 1.652735280493364697E-32, 22.00000000000000000 ) ) ;
#36 = APPROVAL_PERSON_ORGANIZATION ( #92, #97, #206 ) ;
#37 = AXIS2_PLACEMENT_3D ( 'NONE', #8, #44, #85 ) ;
#38 = DIRECTION ( 'NONE',  ( -3.491481338843133355E-15, 1.224646799147353207E-16, -1.000000000000000000 ) ) ;
#39 = EDGE_CURVE ( 'NONE', #125, #125, #29, .T. ) ;
#40 = FACE_BOUND ( 'NONE', #114, .T. ) ;
#41 = ADVANCED_FACE ( 'NONE', ( #146, #40 ), #215, .T. ) ;
#42 = CC_DESIGN_APPROVAL ( #76, ( #94 ) ) ;
#43 = ADVANCED_FACE ( 'NONE', ( #20, #5 ), #231, .T. ) ;
#44 = DIRECTION ( 'NONE',  ( -3.491481338843133355E-15, 1.224646799147353207E-16, -1.000000000000000000 ) ) ;
#45 = APPROVAL_STATUS ( 'not_yet_approved' ) ;
#46 = ORIENTED_EDGE ( 'NONE', *, *, #216, .T. ) ;
#47 = AXIS2_PLACEMENT_3D ( 'NONE', #149, #150, #25 ) ;
#48 = LOCAL_TIME ( 15, 8, 55.00000000000000000, #108 ) ;
#49 = FACE_BOUND ( 'NONE', #178, .T. ) ;
#50 = EDGE_CURVE ( 'NONE', #227, #227, #166, .T. ) ;
#51 = APPLICATION_PROTOCOL_DEFINITION ( 'international standard', 'config_control_design', 1994, #135 ) ;
#52 = VERTEX_POINT ( 'NONE', #144 ) ;
#53 = DIRECTION ( 'NONE',  ( -4.275831445896958607E-31, -1.000000000000000000, -1.224646799147353207E-16 ) ) ;
#54 = LOCAL_TIME ( 15, 8, 55.00000000000000000, #238 ) ;
#55 = EDGE_LOOP ( 'NONE', ( #137 ) ) ;
#56 = APPLICATION_CONTEXT ( 'configuration controlled 3d designs of mechanical parts and assemblies' ) ;
#57 = CC_DESIGN_DATE_AND_TIME_ASSIGNMENT ( #177, #68, ( #221 ) ) ;
#58 = EDGE_LOOP ( 'NONE', ( #102 ) ) ;
#59 = AXIS2_PLACEMENT_3D ( 'NONE', #142, #203, #105 ) ;
#60 = MANIFOLD_SOLID_BREP ( 'Corps-Déplacer/Copier1[1]', #183 ) ;
#61 = DIRECTION ( 'NONE',  ( 0.0000000000000000000, 1.000000000000000000, 0.0000000000000000000 ) ) ;
#62 = CARTESIAN_POINT ( 'NONE',  ( 1.047444401652939218E-15, -3.673940397442057033E-17, 0.2999999999999997669 ) ) ;
#63 = PERSON ( 'UNSPECIFIED', 'UNSPECIFIED', 'UNSPECIFIED', ('UNSPECIFIED'), ('UNSPECIFIED'), ('UNSPECIFIED') ) ;
#64 = APPROVAL_DATE_TIME ( #14, #180 ) ;
#65 = FACE_BOUND ( 'NONE', #219, .T. ) ;
#66 = AXIS2_PLACEMENT_3D ( 'NONE', #134, #190, #101 ) ;
#67 = ADVANCED_FACE ( 'NONE', ( #170 ), #196, .F. ) ;
#68 = DATE_TIME_ROLE ( 'creation_date' ) ;
#69 = DIRECTION ( 'NONE',  ( 3.491481338843133355E-15, -1.224646799147353207E-16, 1.000000000000000000 ) ) ;
#70 = CALENDAR_DATE ( 2021, 30, 11 ) ;
#71 = CARTESIAN_POINT ( 'NONE',  ( 7.681258945454893382E-14, -2.694222958124176809E-15, 22.00000000000000000 ) ) ;
#72 = FACE_OUTER_BOUND ( 'NONE', #78, .T. ) ;
#73 =( LENGTH_UNIT ( ) NAMED_UNIT ( * ) SI_UNIT ( .MILLI., .METRE. ) );
#74 = PERSON_AND_ORGANIZATION ( #63, #145 ) ;
#75 = DESIGN_CONTEXT ( 'detailed design', #56, 'design' ) ;
#76 = APPROVAL ( #45, 'UNSPECIFIED' ) ;
#77 = CC_DESIGN_SECURITY_CLASSIFICATION ( #4, ( #94 ) ) ;
#78 = EDGE_LOOP ( 'NONE', ( #46 ) ) ;
#79 = CIRCLE ( 'NONE', #59, 1.749999999999995337 ) ;
#80 = FACE_OUTER_BOUND ( 'NONE', #58, .T. ) ;
#81 = EDGE_CURVE ( 'NONE', #127, #127, #184, .T. ) ;
#82 = PERSON_AND_ORGANIZATION ( #63, #145 ) ;
#83 = EDGE_LOOP ( 'NONE', ( #147 ) ) ;
#84 = PERSON_AND_ORGANIZATION ( #63, #145 ) ;
#85 = DIRECTION ( 'NONE',  ( 4.275831445896958607E-31, 1.000000000000000000, 1.224646799147353207E-16 ) ) ;
#86 = DATE_TIME_ROLE ( 'classification_date' ) ;
#87 = EDGE_LOOP ( 'NONE', ( #26 ) ) ;
#88 = AXIS2_PLACEMENT_3D ( 'NONE', #193, #141, #123 ) ;
#89 = PERSON_AND_ORGANIZATION ( #63, #145 ) ;
#90 = CARTESIAN_POINT ( 'NONE',  ( 0.0000000000000000000, 1.904000000000001025, 0.0000000000000000000 ) ) ;
#91 = CYLINDRICAL_SURFACE ( 'NONE', #88, 2.203999999999999737 ) ;
#92 = PERSON_AND_ORGANIZATION ( #63, #145 ) ;
#93 = CARTESIAN_POINT ( 'NONE',  ( -4.070591536493906576E-31, 1.427771313094089067E-32, -1.165863752788280630E-16 ) ) ;
#94 = PRODUCT_DEFINITION_FORMATION_WITH_SPECIFIED_SOURCE ( 'ANY', '', #165, .NOT_KNOWN. ) ;
#95 = VERTEX_POINT ( 'NONE', #209 ) ;
#96 = DIRECTION ( 'NONE',  ( 0.0000000000000000000, 1.000000000000000000, 0.0000000000000000000 ) ) ;
#97 = APPROVAL ( #34, 'UNSPECIFIED' ) ;
#98 = EDGE_LOOP ( 'NONE', ( #155 ) ) ;
#99 = AXIS2_PLACEMENT_3D ( 'NONE', #205, #152, #61 ) ;
#100 = AXIS2_PLACEMENT_3D ( 'NONE', #93, #164, #53 ) ;
#101 = DIRECTION ( 'NONE',  ( 0.0000000000000000000, 1.000000000000000000, 0.0000000000000000000 ) ) ;
#102 = ORIENTED_EDGE ( 'NONE', *, *, #50, .T. ) ;
#103 = CARTESIAN_POINT ( 'NONE',  ( 7.681258945454893382E-14, 1.652735280493364697E-32, 22.00000000000000000 ) ) ;
#104 = ADVANCED_FACE ( 'NONE', ( #65, #80 ), #136, .T. ) ;
#105 = DIRECTION ( 'NONE',  ( 0.0000000000000000000, 1.000000000000000000, 0.0000000000000000000 ) ) ;
#106 = COORDINATED_UNIVERSAL_TIME_OFFSET ( 1, 0, .AHEAD. ) ;
#107 = AXIS2_PLACEMENT_3D ( 'NONE', #138, #21, #96 ) ;
#108 = COORDINATED_UNIVERSAL_TIME_OFFSET ( 1, 0, .AHEAD. ) ;
#109 = COORDINATED_UNIVERSAL_TIME_OFFSET ( 1, 0, .AHEAD. ) ;
#110 = DIRECTION ( 'NONE',  ( 0.0000000000000000000, 0.0000000000000000000, 1.000000000000000000 ) ) ;
#111 =( NAMED_UNIT ( * ) SI_UNIT ( $, .STERADIAN. ) SOLID_ANGLE_UNIT ( ) );
#112 = DIRECTION ( 'NONE',  ( 0.0000000000000000000, 1.000000000000000000, 0.0000000000000000000 ) ) ;
#113 = DIRECTION ( 'NONE',  ( -3.491481338843133355E-15, 1.224646799147353207E-16, -1.000000000000000000 ) ) ;
#114 = EDGE_LOOP ( 'NONE', ( #151 ) ) ;
#115 = CIRCLE ( 'NONE', #99, 2.204000000000001958 ) ;
#116 = ORIENTED_EDGE ( 'NONE', *, *, #81, .F. ) ;
#117 = PERSON_AND_ORGANIZATION_ROLE ( 'creator' ) ;
#118 = DIRECTION ( 'NONE',  ( 4.369169565306801227E-31, 1.000000000000000000, 1.229811901639638875E-16 ) ) ;
#119 = DATE_AND_TIME ( #220, #139 ) ;
#120 = CALENDAR_DATE ( 2021, 30, 11 ) ;
#121 = ADVANCED_FACE ( 'NONE', ( #192 ), #225, .F. ) ;
#122 = EDGE_CURVE ( 'NONE', #52, #52, #79, .T. ) ;
#123 = DIRECTION ( 'NONE',  ( 4.275831445896957731E-31, 1.000000000000000000, 1.224646799147353207E-16 ) ) ;
#124 = CARTESIAN_POINT ( 'NONE',  ( 2.187413058785222763E-13, 1.749999999999993339, 62.64999999999999858 ) ) ;
#125 = VERTEX_POINT ( 'NONE', #90 ) ;
#126 = CC_DESIGN_APPROVAL ( #180, ( #4 ) ) ;
#127 = VERTEX_POINT ( 'NONE', #3 ) ;
#128 = PRODUCT_DEFINITION_SHAPE ( 'NONE', 'NONE',  #221 ) ;
#129 = CC_DESIGN_PERSON_AND_ORGANIZATION_ASSIGNMENT ( #84, #9, ( #4 ) ) ;
#130 = EDGE_LOOP ( 'NONE', ( #235 ) ) ;
#131 = EDGE_LOOP ( 'NONE', ( #214 ) ) ;
#132 = AXIS2_PLACEMENT_3D ( 'NONE', #148, #113, #188 ) ;
#133 = AXIS2_PLACEMENT_3D ( 'NONE', #211, #38, #112 ) ;
#134 = CARTESIAN_POINT ( 'NONE',  ( 2.199633243471174140E-13, -7.715274834628325378E-15, 63.00000000000000000 ) ) ;
#135 = APPLICATION_CONTEXT ( 'configuration controlled 3d designs of mechanical parts and assemblies' ) ;
#136 = CONICAL_SURFACE ( 'NONE', #47, 2.203999999999997517, 0.7853981633974428389 ) ;
#137 = ORIENTED_EDGE ( 'NONE', *, *, #216, .F. ) ;
#138 = CARTESIAN_POINT ( 'NONE',  ( 7.955811952948891279E-14, -2.790523189800400491E-15, 22.78635106663628562 ) ) ;
#139 = LOCAL_TIME ( 15, 8, 55.00000000000000000, #106 ) ;
#140 = APPROVAL_ROLE ( '' ) ;
#141 = DIRECTION ( 'NONE',  ( -3.491481338843133355E-15, 1.224646799147353207E-16, -1.000000000000000000 ) ) ;
#142 = CARTESIAN_POINT ( 'NONE',  ( 7.955811952948891279E-14, -2.790523189800400491E-15, 22.78635106663628562 ) ) ;
#143 = PERSON_AND_ORGANIZATION_ROLE ( 'design_owner' ) ;
#144 = CARTESIAN_POINT ( 'NONE',  ( 7.955811952948891279E-14, 1.749999999999992450, 22.78635106663628562 ) ) ;
#145 = ORGANIZATION ( 'UNSPECIFIED', 'UNSPECIFIED', '' ) ;
#146 = FACE_OUTER_BOUND ( 'NONE', #130, .T. ) ;
#147 = ORIENTED_EDGE ( 'NONE', *, *, #153, .T. ) ;
#148 = CARTESIAN_POINT ( 'NONE',  ( 2.199633243471174140E-13, -7.715274834628325378E-15, 63.00000000000000000 ) ) ;
#149 = CARTESIAN_POINT ( 'NONE',  ( 1.047444401652939218E-15, -3.673940397442057033E-17, 0.2999999999999997669 ) ) ;
#150 = DIRECTION ( 'NONE',  ( 3.491481338843133355E-15, -1.224646799147353207E-16, 1.000000000000000000 ) ) ;
#151 = ORIENTED_EDGE ( 'NONE', *, *, #81, .T. ) ;
#152 = DIRECTION ( 'NONE',  ( -3.491481338843133355E-15, 1.224646799147353207E-16, -1.000000000000000000 ) ) ;
#153 = EDGE_CURVE ( 'NONE', #240, #240, #182, .T. ) ;
#154 = DIRECTION ( 'NONE',  ( -4.275831445896958607E-31, -1.000000000000000000, -1.224646799147353207E-16 ) ) ;
#155 = ORIENTED_EDGE ( 'NONE', *, *, #39, .T. ) ;
#156 = SECURITY_CLASSIFICATION_LEVEL ( 'unclassified' ) ;
#157 = DATE_AND_TIME ( #158, #224 ) ;
#158 = CALENDAR_DATE ( 2021, 30, 11 ) ;
#159 = CARTESIAN_POINT ( 'NONE',  ( 0.0000000000000000000, 0.0000000000000000000, 0.0000000000000000000 ) ) ;
#160 = CARTESIAN_POINT ( 'NONE',  ( 2.199633243471174140E-13, 1.049831847863289378E-32, 63.00000000000000000 ) ) ;
#161 = AXIS2_PLACEMENT_3D ( 'NONE', #186, #213, #19 ) ;
#162 = APPROVAL_DATE_TIME ( #17, #97 ) ;
#163 = FACE_OUTER_BOUND ( 'NONE', #98, .T. ) ;
#164 = DIRECTION ( 'NONE',  ( 3.491481338843133355E-15, -1.224646799147353207E-16, 1.000000000000000000 ) ) ;
#165 = PRODUCT ( '969440', '969440', '', ( #181 ) ) ;
#166 = CIRCLE ( 'NONE', #199, 2.203999999999997517 ) ;
#167 = APPROVAL_PERSON_ORGANIZATION ( #171, #76, #201 ) ;
#168 = ORIENTED_EDGE ( 'NONE', *, *, #10, .T. ) ;
#169 = AXIS2_PLACEMENT_3D ( 'NONE', #160, #198, #239 ) ;
#170 = FACE_OUTER_BOUND ( 'NONE', #83, .T. ) ;
#171 = PERSON_AND_ORGANIZATION ( #63, #145 ) ;
#172 = DIRECTION ( 'NONE',  ( 3.491481338843133355E-15, -1.224646799147353207E-16, 1.000000000000000000 ) ) ;
#173 = SHAPE_DEFINITION_REPRESENTATION ( #128, #189 ) ;
#174 = DIRECTION ( 'NONE',  ( -3.491481338843133355E-15, 1.224646799147353207E-16, -1.000000000000000000 ) ) ;
#175 = APPROVAL_DATE_TIME ( #119, #76 ) ;
#176 = APPROVAL_PERSON_ORGANIZATION ( #82, #180, #140 ) ;
#177 = DATE_AND_TIME ( #70, #48 ) ;
#178 = EDGE_LOOP ( 'NONE', ( #32 ) ) ;
#179 = CALENDAR_DATE ( 2021, 30, 11 ) ;
#180 = APPROVAL ( #195, 'UNSPECIFIED' ) ;
#181 = MECHANICAL_CONTEXT ( 'NONE', #135, 'mechanical' ) ;
#182 = CIRCLE ( 'NONE', #23, 2.204000000000001958 ) ;
#183 = CLOSED_SHELL ( 'NONE', ( #67, #230, #43, #41, #121 ) ) ;
#184 = CIRCLE ( 'NONE', #66, 1.400000000000001021 ) ;
#185 = DIRECTION ( 'NONE',  ( 1.000000000000000000, 0.0000000000000000000, 0.0000000000000000000 ) ) ;
#186 = CARTESIAN_POINT ( 'NONE',  ( -8.141183072987813153E-31, 2.855542626188178133E-32, -2.331727505576561260E-16 ) ) ;
#187 = UNCERTAINTY_MEASURE_WITH_UNIT (LENGTH_MEASURE( 1.000000000000000082E-05 ), #73, 'distance_accuracy_value', 'NONE');
#188 = DIRECTION ( 'NONE',  ( 0.0000000000000000000, 1.000000000000000000, 0.0000000000000000000 ) ) ;
#189 = ADVANCED_BREP_SHAPE_REPRESENTATION ( '969440', ( #60, #22, #208 ), #236 ) ;
#190 = DIRECTION ( 'NONE',  ( -3.491481338843133355E-15, 1.224646799147353207E-16, -1.000000000000000000 ) ) ;
#191 = ADVANCED_FACE ( 'NONE', ( #237 ), #200, .T. ) ;
#192 = FACE_OUTER_BOUND ( 'NONE', #28, .T. ) ;
#193 = CARTESIAN_POINT ( 'NONE',  ( 0.0000000000000000000, 0.0000000000000000000, 0.0000000000000000000 ) ) ;
#194 = ORIENTED_EDGE ( 'NONE', *, *, #153, .F. ) ;
#195 = APPROVAL_STATUS ( 'not_yet_approved' ) ;
#196 = PLANE ( 'NONE',  #210 ) ;
#197 = ADVANCED_FACE ( 'NONE', ( #15, #72 ), #91, .T. ) ;
#198 = DIRECTION ( 'NONE',  ( -3.491481338843133355E-15, 1.224646799147353207E-16, -1.000000000000000000 ) ) ;
#199 = AXIS2_PLACEMENT_3D ( 'NONE', #62, #217, #118 ) ;
#200 = PLANE ( 'NONE',  #218 ) ;
#201 = APPROVAL_ROLE ( '' ) ;
#202 = CONICAL_SURFACE ( 'NONE', #107, 1.749999999999995337, 0.5235987755982955960 ) ;
#203 = DIRECTION ( 'NONE',  ( -3.491481338843133355E-15, 1.224646799147353207E-16, -1.000000000000000000 ) ) ;
#204 = APPLICATION_PROTOCOL_DEFINITION ( 'international standard', 'config_control_design', 1994, #56 ) ;
#205 = CARTESIAN_POINT ( 'NONE',  ( 7.681258945454893382E-14, -2.694222958124176809E-15, 22.00000000000000000 ) ) ;
#206 = APPROVAL_ROLE ( '' ) ;
#207 = CARTESIAN_POINT ( 'NONE',  ( 1.047444401652940007E-15, 2.203999999999997517, 0.3000000000000000444 ) ) ;
#208 = AXIS2_PLACEMENT_3D ( 'NONE', #159, #110, #185 ) ;
#209 = CARTESIAN_POINT ( 'NONE',  ( 7.681258945454893382E-14, 2.203999999999999293, 22.00000000000000000 ) ) ;
#210 = AXIS2_PLACEMENT_3D ( 'NONE', #103, #172, #154 ) ;
#211 = CARTESIAN_POINT ( 'NONE',  ( 2.187413058785222763E-13, -7.672412196658167445E-15, 62.64999999999999858 ) ) ;
#212 = CC_DESIGN_PERSON_AND_ORGANIZATION_ASSIGNMENT ( #89, #234, ( #94 ) ) ;
#213 = DIRECTION ( 'NONE',  ( -3.491481338843133355E-15, 1.224646799147353207E-16, -1.000000000000000000 ) ) ;
#214 = ORIENTED_EDGE ( 'NONE', *, *, #122, .F. ) ;
#215 = CONICAL_SURFACE ( 'NONE', #132, 1.400000000000001021, 0.7853981633974437271 ) ;
#216 = EDGE_CURVE ( 'NONE', #95, #95, #115, .T. ) ;
#217 = DIRECTION ( 'NONE',  ( -3.491481338843133355E-15, 1.224646799147353207E-16, -1.000000000000000000 ) ) ;
#218 = AXIS2_PLACEMENT_3D ( 'NONE', #35, #69, #1 ) ;
#219 = EDGE_LOOP ( 'NONE', ( #24 ) ) ;
#220 = CALENDAR_DATE ( 2021, 30, 11 ) ;
#221 = PRODUCT_DEFINITION ( 'UNKNOWN', '', #94, #75 ) ;
#222 = CLOSED_SHELL ( 'NONE', ( #241, #104, #197, #191 ) ) ;
#223 = FACE_OUTER_BOUND ( 'NONE', #7, .T. ) ;
#224 = LOCAL_TIME ( 15, 8, 55.00000000000000000, #226 ) ;
#225 = PLANE ( 'NONE',  #169 ) ;
#226 = COORDINATED_UNIVERSAL_TIME_OFFSET ( 1, 0, .AHEAD. ) ;
#227 = VERTEX_POINT ( 'NONE', #207 ) ;
#228 = PLANE ( 'NONE',  #100 ) ;
#229 = PERSON_AND_ORGANIZATION_ROLE ( 'creator' ) ;
#230 = ADVANCED_FACE ( 'NONE', ( #223, #49 ), #202, .T. ) ;
#231 = CYLINDRICAL_SURFACE ( 'NONE', #37, 1.749999999999998002 ) ;
#232 = CC_DESIGN_PERSON_AND_ORGANIZATION_ASSIGNMENT ( #74, #229, ( #221 ) ) ;
#233 = EDGE_LOOP ( 'NONE', ( #168 ) ) ;
#234 = PERSON_AND_ORGANIZATION_ROLE ( 'design_supplier' ) ;
#235 = ORIENTED_EDGE ( 'NONE', *, *, #10, .F. ) ;
#236 =( GEOMETRIC_REPRESENTATION_CONTEXT ( 3 ) GLOBAL_UNCERTAINTY_ASSIGNED_CONTEXT ( ( #187 ) ) GLOBAL_UNIT_ASSIGNED_CONTEXT ( ( #73, #2, #111 ) ) REPRESENTATION_CONTEXT ( 'NONE', 'WORKASPACE' ) );
#237 = FACE_OUTER_BOUND ( 'NONE', #55, .T. ) ;
#238 = COORDINATED_UNIVERSAL_TIME_OFFSET ( 1, 0, .AHEAD. ) ;
#239 = DIRECTION ( 'NONE',  ( 4.275831445896958607E-31, 1.000000000000000000, 1.224646799147353207E-16 ) ) ;
#240 = VERTEX_POINT ( 'NONE', #16 ) ;
#241 = ADVANCED_FACE ( 'NONE', ( #163 ), #228, .F. ) ;
#242 = PERSON_AND_ORGANIZATION ( #63, #145 ) ;
#243 = CIRCLE ( 'NONE', #133, 1.750000000000000888 ) ;
ENDSEC;
END-ISO-10303-21;
