ISO-10303-21;
HEADER;
FILE_DESCRIPTION (( 'STEP AP203' ),
    '1' );
FILE_NAME ('969439.step',
    '2021-11-30T14:08:55',
    ( '' ),
    ( '' ),
    'SwSTEP 2.0',
    'SolidWorks 2019',
    '' );
FILE_SCHEMA (( 'CONFIG_CONTROL_DESIGN' ));
ENDSEC;

DATA;
#1 = EDGE_LOOP ( 'NONE', ( #240 ) ) ;
#2 = CONICAL_SURFACE ( 'NONE', #32, 1.400000000000001021, 0.7853981633974437271 ) ;
#3 = DIRECTION ( 'NONE',  ( 0.0000000000000000000, 1.000000000000000000, 0.0000000000000000000 ) ) ;
#4 = CARTESIAN_POINT ( 'NONE',  ( 0.0000000000000000000, 0.0000000000000000000, 0.0000000000000000000 ) ) ;
#5 = AXIS2_PLACEMENT_3D ( 'NONE', #97, #224, #164 ) ;
#6 = DATE_TIME_ROLE ( 'creation_date' ) ;
#7 = CIRCLE ( 'NONE', #132, 1.854000000000000759 ) ;
#8 = LOCAL_TIME ( 15, 8, 55.00000000000000000, #64 ) ;
#9 = CC_DESIGN_PERSON_AND_ORGANIZATION_ASSIGNMENT ( #47, #110, ( #238 ) ) ;
#10 = CARTESIAN_POINT ( 'NONE',  ( 2.187413058785222763E-13, 1.749999999999993339, 62.64999999999999858 ) ) ;
#11 = CARTESIAN_POINT ( 'NONE',  ( 2.199633243471174140E-13, -7.715274834628325378E-15, 63.00000000000000000 ) ) ;
#12 =( GEOMETRIC_REPRESENTATION_CONTEXT ( 3 ) GLOBAL_UNCERTAINTY_ASSIGNED_CONTEXT ( ( #192 ) ) GLOBAL_UNIT_ASSIGNED_CONTEXT ( ( #101, #23, #195 ) ) REPRESENTATION_CONTEXT ( 'NONE', 'WORKASPACE' ) );
#13 = CC_DESIGN_APPROVAL ( #71, ( #141 ) ) ;
#14 = FACE_OUTER_BOUND ( 'NONE', #202, .T. ) ;
#15 = DIRECTION ( 'NONE',  ( -3.491481338843133355E-15, 1.224646799147353207E-16, -1.000000000000000000 ) ) ;
#16 = AXIS2_PLACEMENT_3D ( 'NONE', #222, #226, #111 ) ;
#17 = PLANE ( 'NONE',  #230 ) ;
#18 = EDGE_LOOP ( 'NONE', ( #183 ) ) ;
#19 = PRODUCT_DEFINITION_SHAPE ( 'NONE', 'NONE',  #232 ) ;
#20 = CARTESIAN_POINT ( 'NONE',  ( 1.047444401652939218E-15, -3.673940397442057033E-17, 0.2999999999999997669 ) ) ;
#21 = DIRECTION ( 'NONE',  ( -4.470589471650970404E-31, -1.000000000000000000, -1.258359067415860806E-16 ) ) ;
#22 = EDGE_LOOP ( 'NONE', ( #135 ) ) ;
#23 =( NAMED_UNIT ( * ) PLANE_ANGLE_UNIT ( ) SI_UNIT ( $, .RADIAN. ) );
#24 = EDGE_LOOP ( 'NONE', ( #119 ) ) ;
#25 = COORDINATED_UNIVERSAL_TIME_OFFSET ( 1, 0, .AHEAD. ) ;
#26 = DATE_AND_TIME ( #229, #124 ) ;
#27 = CIRCLE ( 'NONE', #136, 1.749999999999995337 ) ;
#28 = LOCAL_TIME ( 15, 8, 55.00000000000000000, #179 ) ;
#29 = PERSON_AND_ORGANIZATION ( #99, #98 ) ;
#30 = ADVANCED_FACE ( 'NONE', ( #42 ), #153, .F. ) ;
#31 = EDGE_CURVE ( 'NONE', #213, #213, #145, .T. ) ;
#32 = AXIS2_PLACEMENT_3D ( 'NONE', #68, #15, #3 ) ;
#33 = DIRECTION ( 'NONE',  ( 0.0000000000000000000, 1.000000000000000000, 0.0000000000000000000 ) ) ;
#34 = DIRECTION ( 'NONE',  ( -3.491481338843133355E-15, 1.224646799147353207E-16, -1.000000000000000000 ) ) ;
#35 = ORIENTED_EDGE ( 'NONE', *, *, #177, .T. ) ;
#36 = CARTESIAN_POINT ( 'NONE',  ( 7.681258945454892119E-14, -2.694222958124176415E-15, 21.99999999999999645 ) ) ;
#37 = AXIS2_PLACEMENT_3D ( 'NONE', #72, #117, #55 ) ;
#38 = AXIS2_PLACEMENT_3D ( 'NONE', #166, #148, #201 ) ;
#39 = CARTESIAN_POINT ( 'NONE',  ( 2.199633243471174140E-13, 1.049831847863289378E-32, 63.00000000000000000 ) ) ;
#40 = APPROVAL_PERSON_ORGANIZATION ( #233, #71, #199 ) ;
#41 = PERSON_AND_ORGANIZATION ( #99, #98 ) ;
#42 = FACE_OUTER_BOUND ( 'NONE', #223, .T. ) ;
#43 = CARTESIAN_POINT ( 'NONE',  ( 7.925574837586117498E-14, 1.749999999999992450, 22.69974852625784223 ) ) ;
#44 = EDGE_CURVE ( 'NONE', #169, #169, #7, .T. ) ;
#45 = CALENDAR_DATE ( 2021, 30, 11 ) ;
#46 = CARTESIAN_POINT ( 'NONE',  ( 2.199633243471174140E-13, 1.399999999999993250, 63.00000000000000000 ) ) ;
#47 = PERSON_AND_ORGANIZATION ( #99, #98 ) ;
#48 = CIRCLE ( 'NONE', #173, 1.400000000000001021 ) ;
#49 = CALENDAR_DATE ( 2021, 30, 11 ) ;
#50 = CC_DESIGN_PERSON_AND_ORGANIZATION_ASSIGNMENT ( #228, #100, ( #163 ) ) ;
#51 = AXIS2_PLACEMENT_3D ( 'NONE', #20, #206, #21 ) ;
#52 = FACE_OUTER_BOUND ( 'NONE', #242, .T. ) ;
#53 = DIRECTION ( 'NONE',  ( -4.275831445896958607E-31, -1.000000000000000000, -1.224646799147353207E-16 ) ) ;
#54 = DIRECTION ( 'NONE',  ( 4.275831445896958607E-31, 1.000000000000000000, 1.224646799147353207E-16 ) ) ;
#55 = DIRECTION ( 'NONE',  ( 4.470589471650970404E-31, 1.000000000000000000, 1.258359067415860806E-16 ) ) ;
#56 = CARTESIAN_POINT ( 'NONE',  ( 7.681258945454892119E-14, 2.153999999999998138, 21.99999999999999645 ) ) ;
#57 = EDGE_LOOP ( 'NONE', ( #152 ) ) ;
#58 = ADVANCED_FACE ( 'NONE', ( #133, #90 ), #86, .T. ) ;
#59 = AXIS2_PLACEMENT_3D ( 'NONE', #89, #67, #53 ) ;
#60 = DIRECTION ( 'NONE',  ( -4.275831445896958607E-31, -1.000000000000000000, -1.224646799147353207E-16 ) ) ;
#61 = APPROVAL_ROLE ( '' ) ;
#62 = VERTEX_POINT ( 'NONE', #46 ) ;
#63 = CONICAL_SURFACE ( 'NONE', #176, 1.749999999999995337, 0.5235987755982921543 ) ;
#64 = COORDINATED_UNIVERSAL_TIME_OFFSET ( 1, 0, .AHEAD. ) ;
#65 = DATE_AND_TIME ( #236, #28 ) ;
#66 = APPLICATION_CONTEXT ( 'configuration controlled 3d designs of mechanical parts and assemblies' ) ;
#67 = DIRECTION ( 'NONE',  ( 3.491481338843133355E-15, -1.224646799147353207E-16, 1.000000000000000000 ) ) ;
#68 = CARTESIAN_POINT ( 'NONE',  ( 2.199633243471174140E-13, -7.715274834628325378E-15, 63.00000000000000000 ) ) ;
#69 = FACE_OUTER_BOUND ( 'NONE', #18, .T. ) ;
#70 = ORIENTED_EDGE ( 'NONE', *, *, #31, .F. ) ;
#71 = APPROVAL ( #143, 'UNSPECIFIED' ) ;
#72 = CARTESIAN_POINT ( 'NONE',  ( 1.047444401652939218E-15, -3.673940397442057033E-17, 0.2999999999999997669 ) ) ;
#73 = CARTESIAN_POINT ( 'NONE',  ( 7.925574837586117498E-14, -2.779917437413151232E-15, 22.69974852625784223 ) ) ;
#74 = ORIENTED_EDGE ( 'NONE', *, *, #129, .F. ) ;
#75 = DIRECTION ( 'NONE',  ( 0.0000000000000000000, 0.0000000000000000000, 1.000000000000000000 ) ) ;
#76 = CLOSED_SHELL ( 'NONE', ( #30, #58, #81, #188 ) ) ;
#77 = PERSON_AND_ORGANIZATION ( #99, #98 ) ;
#78 = APPLICATION_CONTEXT ( 'configuration controlled 3d designs of mechanical parts and assemblies' ) ;
#79 = VERTEX_POINT ( 'NONE', #56 ) ;
#80 = VERTEX_POINT ( 'NONE', #43 ) ;
#81 = ADVANCED_FACE ( 'NONE', ( #203, #239 ), #154, .T. ) ;
#82 = APPROVAL_DATE_TIME ( #215, #71 ) ;
#83 = PERSON_AND_ORGANIZATION_ROLE ( 'classification_officer' ) ;
#84 = ADVANCED_FACE ( 'NONE', ( #167, #180 ), #2, .T. ) ;
#85 = PERSON_AND_ORGANIZATION_ROLE ( 'design_supplier' ) ;
#86 = CONICAL_SURFACE ( 'NONE', #51, 2.153999999999997694, 0.7853981633974428389 ) ;
#87 = CC_DESIGN_APPROVAL ( #175, ( #238 ) ) ;
#88 = DATE_AND_TIME ( #45, #225 ) ;
#89 = CARTESIAN_POINT ( 'NONE',  ( 7.681258945454893382E-14, 1.615241285926817162E-32, 22.00000000000000000 ) ) ;
#90 = FACE_OUTER_BOUND ( 'NONE', #57, .T. ) ;
#91 = CIRCLE ( 'NONE', #38, 2.154000000000000359 ) ;
#92 = EDGE_LOOP ( 'NONE', ( #221 ) ) ;
#93 = DIRECTION ( 'NONE',  ( -3.491481338843133355E-15, 1.224646799147353207E-16, -1.000000000000000000 ) ) ;
#94 = ORIENTED_EDGE ( 'NONE', *, *, #198, .F. ) ;
#95 = APPROVAL ( #170, 'UNSPECIFIED' ) ;
#96 = PLANE ( 'NONE',  #59 ) ;
#97 = CARTESIAN_POINT ( 'NONE',  ( -2.070959923963320992E-31, 7.263949584460528309E-33, -5.931464965668446505E-17 ) ) ;
#98 = ORGANIZATION ( 'UNSPECIFIED', 'UNSPECIFIED', '' ) ;
#99 = PERSON ( 'UNSPECIFIED', 'UNSPECIFIED', 'UNSPECIFIED', ('UNSPECIFIED'), ('UNSPECIFIED'), ('UNSPECIFIED') ) ;
#100 = PERSON_AND_ORGANIZATION_ROLE ( 'design_owner' ) ;
#101 =( LENGTH_UNIT ( ) NAMED_UNIT ( * ) SI_UNIT ( .MILLI., .METRE. ) );
#102 = LOCAL_TIME ( 15, 8, 55.00000000000000000, #25 ) ;
#103 = CARTESIAN_POINT ( 'NONE',  ( 1.047444401652940007E-15, 2.153999999999997694, 0.3000000000000000444 ) ) ;
#104 = CC_DESIGN_PERSON_AND_ORGANIZATION_ASSIGNMENT ( #29, #83, ( #141 ) ) ;
#105 = SECURITY_CLASSIFICATION_LEVEL ( 'unclassified' ) ;
#106 = MANIFOLD_SOLID_BREP ( 'Corps-Déplacer/Copier1[1]', #216 ) ;
#107 = MANIFOLD_SOLID_BREP ( 'Corps-Déplacer/Copier1[2]', #76 ) ;
#108 = AXIS2_PLACEMENT_3D ( 'NONE', #243, #159, #149 ) ;
#109 = SHAPE_DEFINITION_REPRESENTATION ( #19, #127 ) ;
#110 = PERSON_AND_ORGANIZATION_ROLE ( 'creator' ) ;
#111 = DIRECTION ( 'NONE',  ( 4.275831445896958607E-31, 1.000000000000000000, 1.224646799147353207E-16 ) ) ;
#112 = DIRECTION ( 'NONE',  ( 4.275831445896959482E-31, 1.000000000000000000, 1.224646799147352961E-16 ) ) ;
#113 = ORIENTED_EDGE ( 'NONE', *, *, #181, .F. ) ;
#114 = CARTESIAN_POINT ( 'NONE',  ( 0.0000000000000000000, 0.0000000000000000000, 0.0000000000000000000 ) ) ;
#115 = ORIENTED_EDGE ( 'NONE', *, *, #177, .F. ) ;
#116 = CARTESIAN_POINT ( 'NONE',  ( 7.681258945454893382E-14, 1.615241285926817162E-32, 22.00000000000000000 ) ) ;
#117 = DIRECTION ( 'NONE',  ( -3.491481338843133355E-15, 1.224646799147353207E-16, -1.000000000000000000 ) ) ;
#118 = CARTESIAN_POINT ( 'NONE',  ( 7.681258945454892119E-14, 2.153999999999998138, 21.99999999999999645 ) ) ;
#119 = ORIENTED_EDGE ( 'NONE', *, *, #218, .T. ) ;
#120 = PERSON_AND_ORGANIZATION_ROLE ( 'creator' ) ;
#121 = CARTESIAN_POINT ( 'NONE',  ( 3.785471652766323589E-31, 1.854000000000000759, 1.084202172485504434E-16 ) ) ;
#122 = CC_DESIGN_DATE_AND_TIME_ASSIGNMENT ( #65, #217, ( #141 ) ) ;
#123 = AXIS2_PLACEMENT_3D ( 'NONE', #114, #34, #54 ) ;
#124 = LOCAL_TIME ( 15, 8, 55.00000000000000000, #208 ) ;
#125 = FACE_OUTER_BOUND ( 'NONE', #186, .T. ) ;
#126 = CC_DESIGN_APPROVAL ( #95, ( #232 ) ) ;
#127 = ADVANCED_BREP_SHAPE_REPRESENTATION ( '969439', ( #106, #107, #178 ), #12 ) ;
#128 = FACE_BOUND ( 'NONE', #209, .T. ) ;
#129 = EDGE_CURVE ( 'NONE', #211, #211, #146, .T. ) ;
#130 = CYLINDRICAL_SURFACE ( 'NONE', #123, 1.749999999999998002 ) ;
#131 = DIRECTION ( 'NONE',  ( -3.491481338843133355E-15, 1.224646799147353207E-16, -1.000000000000000000 ) ) ;
#132 = AXIS2_PLACEMENT_3D ( 'NONE', #161, #189, #112 ) ;
#133 = FACE_BOUND ( 'NONE', #22, .T. ) ;
#134 = APPROVAL_ROLE ( '' ) ;
#135 = ORIENTED_EDGE ( 'NONE', *, *, #44, .F. ) ;
#136 = AXIS2_PLACEMENT_3D ( 'NONE', #73, #237, #200 ) ;
#137 = DIRECTION ( 'NONE',  ( -3.491481338843133355E-15, 1.224646799147353207E-16, -1.000000000000000000 ) ) ;
#138 = CALENDAR_DATE ( 2021, 30, 11 ) ;
#139 = CC_DESIGN_DATE_AND_TIME_ASSIGNMENT ( #172, #6, ( #232 ) ) ;
#140 = MECHANICAL_CONTEXT ( 'NONE', #66, 'mechanical' ) ;
#141 = SECURITY_CLASSIFICATION ( '', '', #105 ) ;
#142 = PERSON_AND_ORGANIZATION ( #99, #98 ) ;
#143 = APPROVAL_STATUS ( 'not_yet_approved' ) ;
#144 = APPROVAL_DATE_TIME ( #88, #175 ) ;
#145 = CIRCLE ( 'NONE', #37, 2.153999999999997694 ) ;
#146 = CIRCLE ( 'NONE', #108, 1.750000000000000888 ) ;
#147 = CC_DESIGN_PERSON_AND_ORGANIZATION_ASSIGNMENT ( #41, #120, ( #232 ) ) ;
#148 = DIRECTION ( 'NONE',  ( -3.491481338843133355E-15, 1.224646799147353207E-16, -1.000000000000000000 ) ) ;
#149 = DIRECTION ( 'NONE',  ( 0.0000000000000000000, 1.000000000000000000, 0.0000000000000000000 ) ) ;
#150 = EDGE_LOOP ( 'NONE', ( #74 ) ) ;
#151 = PLANE ( 'NONE',  #156 ) ;
#152 = ORIENTED_EDGE ( 'NONE', *, *, #31, .T. ) ;
#153 = PLANE ( 'NONE',  #5 ) ;
#154 = CYLINDRICAL_SURFACE ( 'NONE', #16, 2.153999999999998582 ) ;
#155 = APPROVAL_DATE_TIME ( #26, #95 ) ;
#156 = AXIS2_PLACEMENT_3D ( 'NONE', #116, #187, #60 ) ;
#157 = APPROVAL_STATUS ( 'not_yet_approved' ) ;
#158 = CC_DESIGN_PERSON_AND_ORGANIZATION_ASSIGNMENT ( #142, #85, ( #238 ) ) ;
#159 = DIRECTION ( 'NONE',  ( -3.491481338843133355E-15, 1.224646799147353207E-16, -1.000000000000000000 ) ) ;
#160 = CIRCLE ( 'NONE', #197, 2.154000000000000359 ) ;
#161 = CARTESIAN_POINT ( 'NONE',  ( -4.141919847926641984E-31, 1.452789916892105662E-32, -1.186292993133689301E-16 ) ) ;
#162 = ADVANCED_FACE ( 'NONE', ( #125, #128 ), #63, .T. ) ;
#163 = PRODUCT ( '969439', '969439', '', ( #140 ) ) ;
#164 = DIRECTION ( 'NONE',  ( -4.275831445896958607E-31, -1.000000000000000000, -1.224646799147353207E-16 ) ) ;
#165 = EDGE_LOOP ( 'NONE', ( #115 ) ) ;
#166 = CARTESIAN_POINT ( 'NONE',  ( 7.681258945454892119E-14, -2.694222958124176415E-15, 21.99999999999999645 ) ) ;
#167 = FACE_OUTER_BOUND ( 'NONE', #150, .T. ) ;
#168 = EDGE_LOOP ( 'NONE', ( #70 ) ) ;
#169 = VERTEX_POINT ( 'NONE', #121 ) ;
#170 = APPROVAL_STATUS ( 'not_yet_approved' ) ;
#171 = PRODUCT_RELATED_PRODUCT_CATEGORY ( 'detail', '', ( #163 ) ) ;
#172 = DATE_AND_TIME ( #138, #102 ) ;
#173 = AXIS2_PLACEMENT_3D ( 'NONE', #11, #137, #207 ) ;
#174 = APPLICATION_PROTOCOL_DEFINITION ( 'international standard', 'config_control_design', 1994, #78 ) ;
#175 = APPROVAL ( #157, 'UNSPECIFIED' ) ;
#176 = AXIS2_PLACEMENT_3D ( 'NONE', #204, #182, #220 ) ;
#177 = EDGE_CURVE ( 'NONE', #80, #80, #27, .T. ) ;
#178 = AXIS2_PLACEMENT_3D ( 'NONE', #4, #75, #231 ) ;
#179 = COORDINATED_UNIVERSAL_TIME_OFFSET ( 1, 0, .AHEAD. ) ;
#180 = FACE_BOUND ( 'NONE', #24, .T. ) ;
#181 = EDGE_CURVE ( 'NONE', #79, #79, #160, .T. ) ;
#182 = DIRECTION ( 'NONE',  ( -3.491481338843133355E-15, 1.224646799147353207E-16, -1.000000000000000000 ) ) ;
#183 = ORIENTED_EDGE ( 'NONE', *, *, #198, .T. ) ;
#184 = FACE_OUTER_BOUND ( 'NONE', #92, .T. ) ;
#185 = CC_DESIGN_SECURITY_CLASSIFICATION ( #141, ( #238 ) ) ;
#186 = EDGE_LOOP ( 'NONE', ( #94 ) ) ;
#187 = DIRECTION ( 'NONE',  ( 3.491481338843133355E-15, -1.224646799147353207E-16, 1.000000000000000000 ) ) ;
#188 = ADVANCED_FACE ( 'NONE', ( #14 ), #96, .T. ) ;
#189 = DIRECTION ( 'NONE',  ( -3.491481338843133355E-15, 1.224646799147353207E-16, -1.000000000000000000 ) ) ;
#190 = ORIENTED_EDGE ( 'NONE', *, *, #129, .T. ) ;
#191 = PERSON_AND_ORGANIZATION ( #99, #98 ) ;
#192 = UNCERTAINTY_MEASURE_WITH_UNIT (LENGTH_MEASURE( 1.000000000000000082E-05 ), #101, 'distance_accuracy_value', 'NONE');
#193 = VERTEX_POINT ( 'NONE', #118 ) ;
#194 = ORIENTED_EDGE ( 'NONE', *, *, #44, .T. ) ;
#195 =( NAMED_UNIT ( * ) SI_UNIT ( $, .STERADIAN. ) SOLID_ANGLE_UNIT ( ) );
#196 = APPLICATION_PROTOCOL_DEFINITION ( 'international standard', 'config_control_design', 1994, #66 ) ;
#197 = AXIS2_PLACEMENT_3D ( 'NONE', #36, #131, #33 ) ;
#198 = EDGE_CURVE ( 'NONE', #193, #193, #91, .T. ) ;
#199 = APPROVAL_ROLE ( '' ) ;
#200 = DIRECTION ( 'NONE',  ( 0.0000000000000000000, 1.000000000000000000, 0.0000000000000000000 ) ) ;
#201 = DIRECTION ( 'NONE',  ( 0.0000000000000000000, 1.000000000000000000, 0.0000000000000000000 ) ) ;
#202 = EDGE_LOOP ( 'NONE', ( #113 ) ) ;
#203 = FACE_OUTER_BOUND ( 'NONE', #168, .T. ) ;
#204 = CARTESIAN_POINT ( 'NONE',  ( 7.925574837586117498E-14, -2.779917437413151232E-15, 22.69974852625784223 ) ) ;
#205 = ADVANCED_FACE ( 'NONE', ( #219, #52 ), #130, .T. ) ;
#206 = DIRECTION ( 'NONE',  ( 3.491481338843133355E-15, -1.224646799147353207E-16, 1.000000000000000000 ) ) ;
#207 = DIRECTION ( 'NONE',  ( 0.0000000000000000000, 1.000000000000000000, 0.0000000000000000000 ) ) ;
#208 = COORDINATED_UNIVERSAL_TIME_OFFSET ( 1, 0, .AHEAD. ) ;
#209 = EDGE_LOOP ( 'NONE', ( #35 ) ) ;
#210 = ADVANCED_FACE ( 'NONE', ( #184 ), #17, .F. ) ;
#211 = VERTEX_POINT ( 'NONE', #10 ) ;
#212 = COORDINATED_UNIVERSAL_TIME_OFFSET ( 1, 0, .AHEAD. ) ;
#213 = VERTEX_POINT ( 'NONE', #103 ) ;
#214 = ADVANCED_FACE ( 'NONE', ( #69 ), #151, .F. ) ;
#215 = DATE_AND_TIME ( #49, #8 ) ;
#216 = CLOSED_SHELL ( 'NONE', ( #214, #162, #205, #84, #210 ) ) ;
#217 = DATE_TIME_ROLE ( 'classification_date' ) ;
#218 = EDGE_CURVE ( 'NONE', #62, #62, #48, .T. ) ;
#219 = FACE_OUTER_BOUND ( 'NONE', #165, .T. ) ;
#220 = DIRECTION ( 'NONE',  ( 0.0000000000000000000, 1.000000000000000000, 0.0000000000000000000 ) ) ;
#221 = ORIENTED_EDGE ( 'NONE', *, *, #218, .F. ) ;
#222 = CARTESIAN_POINT ( 'NONE',  ( 0.0000000000000000000, 0.0000000000000000000, 0.0000000000000000000 ) ) ;
#223 = EDGE_LOOP ( 'NONE', ( #194 ) ) ;
#224 = DIRECTION ( 'NONE',  ( 3.491481338843133355E-15, -1.224646799147353207E-16, 1.000000000000000000 ) ) ;
#225 = LOCAL_TIME ( 15, 8, 55.00000000000000000, #212 ) ;
#226 = DIRECTION ( 'NONE',  ( -3.491481338843133355E-15, 1.224646799147353207E-16, -1.000000000000000000 ) ) ;
#227 = DESIGN_CONTEXT ( 'detailed design', #78, 'design' ) ;
#228 = PERSON_AND_ORGANIZATION ( #99, #98 ) ;
#229 = CALENDAR_DATE ( 2021, 30, 11 ) ;
#230 = AXIS2_PLACEMENT_3D ( 'NONE', #39, #93, #241 ) ;
#231 = DIRECTION ( 'NONE',  ( 1.000000000000000000, 0.0000000000000000000, 0.0000000000000000000 ) ) ;
#232 = PRODUCT_DEFINITION ( 'UNKNOWN', '', #238, #227 ) ;
#233 = PERSON_AND_ORGANIZATION ( #99, #98 ) ;
#234 = APPROVAL_PERSON_ORGANIZATION ( #191, #95, #134 ) ;
#235 = APPROVAL_PERSON_ORGANIZATION ( #77, #175, #61 ) ;
#236 = CALENDAR_DATE ( 2021, 30, 11 ) ;
#237 = DIRECTION ( 'NONE',  ( -3.491481338843133355E-15, 1.224646799147353207E-16, -1.000000000000000000 ) ) ;
#238 = PRODUCT_DEFINITION_FORMATION_WITH_SPECIFIED_SOURCE ( 'ANY', '', #163, .NOT_KNOWN. ) ;
#239 = FACE_OUTER_BOUND ( 'NONE', #1, .T. ) ;
#240 = ORIENTED_EDGE ( 'NONE', *, *, #181, .T. ) ;
#241 = DIRECTION ( 'NONE',  ( 4.275831445896958607E-31, 1.000000000000000000, 1.224646799147353207E-16 ) ) ;
#242 = EDGE_LOOP ( 'NONE', ( #190 ) ) ;
#243 = CARTESIAN_POINT ( 'NONE',  ( 2.187413058785222763E-13, -7.672412196658167445E-15, 62.64999999999999858 ) ) ;
ENDSEC;
END-ISO-10303-21;
