ISO-10303-21;
HEADER;
FILE_DESCRIPTION (( 'STEP AP203' ),
    '1' );
FILE_NAME ('969438.step',
    '2021-11-30T14:08:54',
    ( '' ),
    ( '' ),
    'SwSTEP 2.0',
    'SolidWorks 2019',
    '' );
FILE_SCHEMA (( 'CONFIG_CONTROL_DESIGN' ));
ENDSEC;

DATA;
#1 = UNCERTAINTY_MEASURE_WITH_UNIT (LENGTH_MEASURE( 1.000000000000000082E-05 ), #45, 'distance_accuracy_value', 'NONE');
#2 = CARTESIAN_POINT ( 'NONE',  ( 0.0000000000000000000, 0.0000000000000000000, 0.0000000000000000000 ) ) ;
#3 = DIRECTION ( 'NONE',  ( -3.491481338843133355E-15, 1.224646799147353207E-16, -1.000000000000000000 ) ) ;
#4 = DIRECTION ( 'NONE',  ( 3.491481338843133355E-15, -1.224646799147353207E-16, 1.000000000000000000 ) ) ;
#5 = DATE_AND_TIME ( #43, #207 ) ;
#6 = ADVANCED_FACE ( 'NONE', ( #120, #195 ), #181, .T. ) ;
#7 = MECHANICAL_CONTEXT ( 'NONE', #159, 'mechanical' ) ;
#8 = CARTESIAN_POINT ( 'NONE',  ( 7.895337722223342455E-14, -2.769311685025902367E-15, 22.61314598587939528 ) ) ;
#9 = ORIENTED_EDGE ( 'NONE', *, *, #145, .F. ) ;
#10 = CARTESIAN_POINT ( 'NONE',  ( 7.681258945454892119E-14, 2.104000000000000092, 21.99999999999999645 ) ) ;
#11 = EDGE_CURVE ( 'NONE', #115, #115, #158, .T. ) ;
#12 = CC_DESIGN_APPROVAL ( #233, ( #186 ) ) ;
#13 = CC_DESIGN_PERSON_AND_ORGANIZATION_ASSIGNMENT ( #119, #206, ( #203 ) ) ;
#14 = DIRECTION ( 'NONE',  ( 0.0000000000000000000, 1.000000000000000000, 0.0000000000000000000 ) ) ;
#15 = CARTESIAN_POINT ( 'NONE',  ( 7.681258945454893382E-14, 1.577747291360272364E-32, 22.00000000000000000 ) ) ;
#16 = DIRECTION ( 'NONE',  ( 3.491481338843133355E-15, -1.224646799147353207E-16, 1.000000000000000000 ) ) ;
#17 = ADVANCED_FACE ( 'NONE', ( #37 ), #116, .F. ) ;
#18 = DIRECTION ( 'NONE',  ( -3.491481338843133355E-15, 1.224646799147353207E-16, -1.000000000000000000 ) ) ;
#19 = APPLICATION_PROTOCOL_DEFINITION ( 'international standard', 'config_control_design', 1994, #159 ) ;
#20 = CARTESIAN_POINT ( 'NONE',  ( -3.856799964199058120E-31, 1.352783323960996186E-32, -1.104631412830912982E-16 ) ) ;
#21 = CARTESIAN_POINT ( 'NONE',  ( 0.0000000000000000000, 1.804000000000000714, 0.0000000000000000000 ) ) ;
#22 = EDGE_CURVE ( 'NONE', #134, #134, #110, .T. ) ;
#23 = EDGE_LOOP ( 'NONE', ( #216 ) ) ;
#24 = PERSON_AND_ORGANIZATION_ROLE ( 'design_owner' ) ;
#25 = EDGE_LOOP ( 'NONE', ( #59 ) ) ;
#26 = COORDINATED_UNIVERSAL_TIME_OFFSET ( 1, 0, .AHEAD. ) ;
#27 = EDGE_LOOP ( 'NONE', ( #212 ) ) ;
#28 = DATE_AND_TIME ( #237, #95 ) ;
#29 = PERSON_AND_ORGANIZATION_ROLE ( 'creator' ) ;
#30 = DATE_AND_TIME ( #222, #72 ) ;
#31 = AXIS2_PLACEMENT_3D ( 'NONE', #205, #190, #52 ) ;
#32 = APPROVAL_PERSON_ORGANIZATION ( #219, #111, #161 ) ;
#33 = ADVANCED_FACE ( 'NONE', ( #189, #132 ), #68, .T. ) ;
#34 = FACE_BOUND ( 'NONE', #84, .T. ) ;
#35 = DIRECTION ( 'NONE',  ( 4.275831445896958607E-31, 1.000000000000000000, 1.224646799147353207E-16 ) ) ;
#36 = ADVANCED_FACE ( 'NONE', ( #166, #41 ), #242, .T. ) ;
#37 = FACE_OUTER_BOUND ( 'NONE', #176, .T. ) ;
#38 = DIRECTION ( 'NONE',  ( 0.0000000000000000000, 1.000000000000000000, 0.0000000000000000000 ) ) ;
#39 = ORIENTED_EDGE ( 'NONE', *, *, #94, .T. ) ;
#40 = VERTEX_POINT ( 'NONE', #10 ) ;
#41 = FACE_BOUND ( 'NONE', #56, .T. ) ;
#42 = ORIENTED_EDGE ( 'NONE', *, *, #94, .F. ) ;
#43 = CALENDAR_DATE ( 2021, 30, 11 ) ;
#44 = EDGE_LOOP ( 'NONE', ( #82 ) ) ;
#45 =( LENGTH_UNIT ( ) NAMED_UNIT ( * ) SI_UNIT ( .MILLI., .METRE. ) );
#46 = APPROVAL_STATUS ( 'not_yet_approved' ) ;
#47 = EDGE_LOOP ( 'NONE', ( #152 ) ) ;
#48 = CC_DESIGN_DATE_AND_TIME_ASSIGNMENT ( #177, #240, ( #186 ) ) ;
#49 = APPROVAL_STATUS ( 'not_yet_approved' ) ;
#50 = AXIS2_PLACEMENT_3D ( 'NONE', #169, #229, #55 ) ;
#51 = CARTESIAN_POINT ( 'NONE',  ( 1.047444401652939218E-15, -3.673940397442057033E-17, 0.2999999999999997669 ) ) ;
#52 = DIRECTION ( 'NONE',  ( 4.275831445896958607E-31, 1.000000000000000000, 1.224646799147353207E-16 ) ) ;
#53 = CIRCLE ( 'NONE', #197, 2.104000000000002757 ) ;
#54 = CARTESIAN_POINT ( 'NONE',  ( 2.187413058785222763E-13, 1.749999999999993339, 62.64999999999999858 ) ) ;
#55 = DIRECTION ( 'NONE',  ( 0.0000000000000000000, 1.000000000000000000, 0.0000000000000000000 ) ) ;
#56 = EDGE_LOOP ( 'NONE', ( #154 ) ) ;
#57 = DIRECTION ( 'NONE',  ( -3.491481338843133355E-15, 1.224646799147353207E-16, -1.000000000000000000 ) ) ;
#58 = CARTESIAN_POINT ( 'NONE',  ( 0.0000000000000000000, 0.0000000000000000000, 0.0000000000000000000 ) ) ;
#59 = ORIENTED_EDGE ( 'NONE', *, *, #196, .F. ) ;
#60 = DATE_TIME_ROLE ( 'creation_date' ) ;
#61 = AXIS2_PLACEMENT_3D ( 'NONE', #2, #97, #117 ) ;
#62 = DATE_AND_TIME ( #175, #142 ) ;
#63 = ORGANIZATION ( 'UNSPECIFIED', 'UNSPECIFIED', '' ) ;
#64 = SECURITY_CLASSIFICATION_LEVEL ( 'unclassified' ) ;
#65 = CC_DESIGN_PERSON_AND_ORGANIZATION_ASSIGNMENT ( #199, #67, ( #138 ) ) ;
#66 = SHAPE_DEFINITION_REPRESENTATION ( #88, #69 ) ;
#67 = PERSON_AND_ORGANIZATION_ROLE ( 'design_supplier' ) ;
#68 = CONICAL_SURFACE ( 'NONE', #160, 2.103999999999997428, 0.7853981633974428389 ) ;
#69 = ADVANCED_BREP_SHAPE_REPRESENTATION ( '969438', ( #104, #183, #163 ), #198 ) ;
#70 = AXIS2_PLACEMENT_3D ( 'NONE', #20, #101, #151 ) ;
#71 = VERTEX_POINT ( 'NONE', #21 ) ;
#72 = LOCAL_TIME ( 15, 8, 54.00000000000000000, #157 ) ;
#73 = FACE_OUTER_BOUND ( 'NONE', #25, .T. ) ;
#74 = DIRECTION ( 'NONE',  ( 0.0000000000000000000, 1.000000000000000000, 0.0000000000000000000 ) ) ;
#75 = DIRECTION ( 'NONE',  ( -4.275831445896958607E-31, -1.000000000000000000, -1.224646799147353207E-16 ) ) ;
#76 = CARTESIAN_POINT ( 'NONE',  ( 1.047444401652940007E-15, 2.103999999999997428, 0.3000000000000000444 ) ) ;
#77 = AXIS2_PLACEMENT_3D ( 'NONE', #113, #185, #14 ) ;
#78 = DIRECTION ( 'NONE',  ( -3.491481338843133355E-15, 1.224646799147353207E-16, -1.000000000000000000 ) ) ;
#79 = CONICAL_SURFACE ( 'NONE', #77, 1.400000000000001021, 0.7853981633974437271 ) ;
#80 = COORDINATED_UNIVERSAL_TIME_OFFSET ( 1, 0, .AHEAD. ) ;
#81 = DIRECTION ( 'NONE',  ( -4.576829715749140506E-31, -1.000000000000000000, -1.288263037649127644E-16 ) ) ;
#82 = ORIENTED_EDGE ( 'NONE', *, *, #108, .F. ) ;
#83 = PLANE ( 'NONE',  #102 ) ;
#84 = EDGE_LOOP ( 'NONE', ( #107 ) ) ;
#85 = DIRECTION ( 'NONE',  ( 1.000000000000000000, 0.0000000000000000000, 0.0000000000000000000 ) ) ;
#86 = EDGE_LOOP ( 'NONE', ( #155 ) ) ;
#87 = PERSON_AND_ORGANIZATION_ROLE ( 'classification_officer' ) ;
#88 = PRODUCT_DEFINITION_SHAPE ( 'NONE', 'NONE',  #203 ) ;
#89 = CIRCLE ( 'NONE', #144, 1.804000000000000714 ) ;
#90 = COORDINATED_UNIVERSAL_TIME_OFFSET ( 1, 0, .AHEAD. ) ;
#91 = CIRCLE ( 'NONE', #149, 2.104000000000002757 ) ;
#92 = CC_DESIGN_PERSON_AND_ORGANIZATION_ASSIGNMENT ( #180, #29, ( #138 ) ) ;
#93 = DIRECTION ( 'NONE',  ( 0.0000000000000000000, 0.0000000000000000000, 1.000000000000000000 ) ) ;
#94 = EDGE_CURVE ( 'NONE', #188, #188, #128, .T. ) ;
#95 = LOCAL_TIME ( 15, 8, 54.00000000000000000, #90 ) ;
#96 = CYLINDRICAL_SURFACE ( 'NONE', #61, 1.749999999999998002 ) ;
#97 = DIRECTION ( 'NONE',  ( -3.491481338843133355E-15, 1.224646799147353207E-16, -1.000000000000000000 ) ) ;
#98 = DIRECTION ( 'NONE',  ( 0.0000000000000000000, 1.000000000000000000, 0.0000000000000000000 ) ) ;
#99 = DIRECTION ( 'NONE',  ( -3.491481338843133355E-15, 1.224646799147353207E-16, -1.000000000000000000 ) ) ;
#100 = DIRECTION ( 'NONE',  ( 0.0000000000000000000, 1.000000000000000000, 0.0000000000000000000 ) ) ;
#101 = DIRECTION ( 'NONE',  ( 3.491481338843133355E-15, -1.224646799147353207E-16, 1.000000000000000000 ) ) ;
#102 = AXIS2_PLACEMENT_3D ( 'NONE', #150, #16, #228 ) ;
#103 = VERTEX_POINT ( 'NONE', #121 ) ;
#104 = MANIFOLD_SOLID_BREP ( 'Corps-Déplacer/Copier1[1]', #224 ) ;
#105 = ORIENTED_EDGE ( 'NONE', *, *, #22, .F. ) ;
#106 = APPLICATION_PROTOCOL_DEFINITION ( 'international standard', 'config_control_design', 1994, #184 ) ;
#107 = ORIENTED_EDGE ( 'NONE', *, *, #196, .T. ) ;
#108 = EDGE_CURVE ( 'NONE', #71, #71, #89, .T. ) ;
#109 = AXIS2_PLACEMENT_3D ( 'NONE', #58, #231, #208 ) ;
#110 = CIRCLE ( 'NONE', #50, 1.750000000000000888 ) ;
#111 = APPROVAL ( #46, 'UNSPECIFIED' ) ;
#112 = APPROVAL_PERSON_ORGANIZATION ( #221, #233, #235 ) ;
#113 = CARTESIAN_POINT ( 'NONE',  ( 2.199633243471174140E-13, -7.715274834628325378E-15, 63.00000000000000000 ) ) ;
#114 = CARTESIAN_POINT ( 'NONE',  ( 7.681258945454892119E-14, -2.694222958124176415E-15, 21.99999999999999645 ) ) ;
#115 = VERTEX_POINT ( 'NONE', #217 ) ;
#116 = PLANE ( 'NONE',  #70 ) ;
#117 = DIRECTION ( 'NONE',  ( 4.275831445896958607E-31, 1.000000000000000000, 1.224646799147353207E-16 ) ) ;
#118 = EDGE_LOOP ( 'NONE', ( #191 ) ) ;
#119 = PERSON_AND_ORGANIZATION ( #214, #63 ) ;
#120 = FACE_OUTER_BOUND ( 'NONE', #218, .T. ) ;
#121 = CARTESIAN_POINT ( 'NONE',  ( 2.199633243471174140E-13, 1.399999999999993250, 63.00000000000000000 ) ) ;
#122 = APPROVAL_DATE_TIME ( #30, #233 ) ;
#123 = AXIS2_PLACEMENT_3D ( 'NONE', #51, #148, #226 ) ;
#124 = ADVANCED_FACE ( 'NONE', ( #130 ), #167, .F. ) ;
#125 = DIRECTION ( 'NONE',  ( 0.0000000000000000000, 1.000000000000000000, 0.0000000000000000000 ) ) ;
#126 = FACE_OUTER_BOUND ( 'NONE', #47, .T. ) ;
#127 = APPROVAL_ROLE ( '' ) ;
#128 = CIRCLE ( 'NONE', #123, 2.103999999999997428 ) ;
#129 = CC_DESIGN_APPROVAL ( #111, ( #138 ) ) ;
#130 = FACE_OUTER_BOUND ( 'NONE', #23, .T. ) ;
#131 = ADVANCED_FACE ( 'NONE', ( #126, #164 ), #96, .T. ) ;
#132 = FACE_OUTER_BOUND ( 'NONE', #174, .T. ) ;
#133 = PERSON_AND_ORGANIZATION ( #214, #63 ) ;
#134 = VERTEX_POINT ( 'NONE', #54 ) ;
#135 = ADVANCED_FACE ( 'NONE', ( #73 ), #227, .F. ) ;
#136 = AXIS2_PLACEMENT_3D ( 'NONE', #15, #4, #75 ) ;
#137 = PERSON_AND_ORGANIZATION ( #214, #63 ) ;
#138 = PRODUCT_DEFINITION_FORMATION_WITH_SPECIFIED_SOURCE ( 'ANY', '', #139, .NOT_KNOWN. ) ;
#139 = PRODUCT ( '969438', '969438', '', ( #7 ) ) ;
#140 = EDGE_CURVE ( 'NONE', #213, #213, #53, .T. ) ;
#141 = CLOSED_SHELL ( 'NONE', ( #17, #33, #6, #225 ) ) ;
#142 = LOCAL_TIME ( 15, 8, 54.00000000000000000, #232 ) ;
#143 = CARTESIAN_POINT ( 'NONE',  ( 7.681258945454892119E-14, 2.104000000000000092, 21.99999999999999645 ) ) ;
#144 = AXIS2_PLACEMENT_3D ( 'NONE', #170, #18, #35 ) ;
#145 = EDGE_CURVE ( 'NONE', #40, #40, #91, .T. ) ;
#146 = CARTESIAN_POINT ( 'NONE',  ( 2.199633243471174140E-13, -7.715274834628325378E-15, 63.00000000000000000 ) ) ;
#147 = CC_DESIGN_PERSON_AND_ORGANIZATION_ASSIGNMENT ( #133, #24, ( #139 ) ) ;
#148 = DIRECTION ( 'NONE',  ( -3.491481338843133355E-15, 1.224646799147353207E-16, -1.000000000000000000 ) ) ;
#149 = AXIS2_PLACEMENT_3D ( 'NONE', #187, #99, #125 ) ;
#150 = CARTESIAN_POINT ( 'NONE',  ( 7.681258945454893382E-14, 1.577747291360272364E-32, 22.00000000000000000 ) ) ;
#151 = DIRECTION ( 'NONE',  ( -4.275831445896958607E-31, -1.000000000000000000, -1.224646799147353207E-16 ) ) ;
#152 = ORIENTED_EDGE ( 'NONE', *, *, #11, .F. ) ;
#153 = APPROVAL_STATUS ( 'not_yet_approved' ) ;
#154 = ORIENTED_EDGE ( 'NONE', *, *, #11, .T. ) ;
#155 = ORIENTED_EDGE ( 'NONE', *, *, #140, .T. ) ;
#156 = ADVANCED_FACE ( 'NONE', ( #204, #34 ), #79, .T. ) ;
#157 = COORDINATED_UNIVERSAL_TIME_OFFSET ( 1, 0, .AHEAD. ) ;
#158 = CIRCLE ( 'NONE', #162, 1.749999999999995337 ) ;
#159 = APPLICATION_CONTEXT ( 'configuration controlled 3d designs of mechanical parts and assemblies' ) ;
#160 = AXIS2_PLACEMENT_3D ( 'NONE', #172, #211, #81 ) ;
#161 = APPROVAL_ROLE ( '' ) ;
#162 = AXIS2_PLACEMENT_3D ( 'NONE', #8, #78, #98 ) ;
#163 = AXIS2_PLACEMENT_3D ( 'NONE', #194, #93, #85 ) ;
#164 = FACE_OUTER_BOUND ( 'NONE', #27, .T. ) ;
#165 = PRODUCT_RELATED_PRODUCT_CATEGORY ( 'detail', '', ( #139 ) ) ;
#166 = FACE_OUTER_BOUND ( 'NONE', #234, .T. ) ;
#167 = PLANE ( 'NONE',  #136 ) ;
#168 =( NAMED_UNIT ( * ) PLANE_ANGLE_UNIT ( ) SI_UNIT ( $, .RADIAN. ) );
#169 = CARTESIAN_POINT ( 'NONE',  ( 2.187413058785222763E-13, -7.672412196658167445E-15, 62.64999999999999858 ) ) ;
#170 = CARTESIAN_POINT ( 'NONE',  ( -7.713599928398116241E-31, 2.705566647921992373E-32, -2.209262825661825964E-16 ) ) ;
#171 = CC_DESIGN_SECURITY_CLASSIFICATION ( #186, ( #138 ) ) ;
#172 = CARTESIAN_POINT ( 'NONE',  ( 1.047444401652939218E-15, -3.673940397442057033E-17, 0.2999999999999997669 ) ) ;
#173 = PERSON_AND_ORGANIZATION ( #214, #63 ) ;
#174 = EDGE_LOOP ( 'NONE', ( #39 ) ) ;
#175 = CALENDAR_DATE ( 2021, 30, 11 ) ;
#176 = EDGE_LOOP ( 'NONE', ( #236 ) ) ;
#177 = DATE_AND_TIME ( #238, #239 ) ;
#178 = APPROVAL_DATE_TIME ( #28, #111 ) ;
#179 = APPROVAL_PERSON_ORGANIZATION ( #173, #241, #127 ) ;
#180 = PERSON_AND_ORGANIZATION ( #214, #63 ) ;
#181 = CYLINDRICAL_SURFACE ( 'NONE', #109, 2.104000000000000092 ) ;
#182 = CIRCLE ( 'NONE', #223, 1.400000000000001021 ) ;
#183 = MANIFOLD_SOLID_BREP ( 'Corps-Déplacer/Copier1[2]', #141 ) ;
#184 = APPLICATION_CONTEXT ( 'configuration controlled 3d designs of mechanical parts and assemblies' ) ;
#185 = DIRECTION ( 'NONE',  ( -3.491481338843133355E-15, 1.224646799147353207E-16, -1.000000000000000000 ) ) ;
#186 = SECURITY_CLASSIFICATION ( '', '', #64 ) ;
#187 = CARTESIAN_POINT ( 'NONE',  ( 7.681258945454892119E-14, -2.694222958124176415E-15, 21.99999999999999645 ) ) ;
#188 = VERTEX_POINT ( 'NONE', #76 ) ;
#189 = FACE_BOUND ( 'NONE', #44, .T. ) ;
#190 = DIRECTION ( 'NONE',  ( -3.491481338843133355E-15, 1.224646799147353207E-16, -1.000000000000000000 ) ) ;
#191 = ORIENTED_EDGE ( 'NONE', *, *, #140, .F. ) ;
#192 = APPROVAL_DATE_TIME ( #5, #241 ) ;
#193 = AXIS2_PLACEMENT_3D ( 'NONE', #215, #3, #74 ) ;
#194 = CARTESIAN_POINT ( 'NONE',  ( 0.0000000000000000000, 0.0000000000000000000, 0.0000000000000000000 ) ) ;
#195 = FACE_OUTER_BOUND ( 'NONE', #86, .T. ) ;
#196 = EDGE_CURVE ( 'NONE', #103, #103, #182, .T. ) ;
#197 = AXIS2_PLACEMENT_3D ( 'NONE', #114, #209, #38 ) ;
#198 =( GEOMETRIC_REPRESENTATION_CONTEXT ( 3 ) GLOBAL_UNCERTAINTY_ASSIGNED_CONTEXT ( ( #1 ) ) GLOBAL_UNIT_ASSIGNED_CONTEXT ( ( #45, #168, #243 ) ) REPRESENTATION_CONTEXT ( 'NONE', 'WORKASPACE' ) );
#199 = PERSON_AND_ORGANIZATION ( #214, #63 ) ;
#200 = CC_DESIGN_APPROVAL ( #241, ( #203 ) ) ;
#201 = DESIGN_CONTEXT ( 'detailed design', #184, 'design' ) ;
#202 = CC_DESIGN_DATE_AND_TIME_ASSIGNMENT ( #62, #60, ( #203 ) ) ;
#203 = PRODUCT_DEFINITION ( 'UNKNOWN', '', #138, #201 ) ;
#204 = FACE_OUTER_BOUND ( 'NONE', #230, .T. ) ;
#205 = CARTESIAN_POINT ( 'NONE',  ( 2.199633243471174140E-13, 1.049831847863289378E-32, 63.00000000000000000 ) ) ;
#206 = PERSON_AND_ORGANIZATION_ROLE ( 'creator' ) ;
#207 = LOCAL_TIME ( 15, 8, 54.00000000000000000, #80 ) ;
#208 = DIRECTION ( 'NONE',  ( 4.275831445896957731E-31, 1.000000000000000000, 1.224646799147353207E-16 ) ) ;
#209 = DIRECTION ( 'NONE',  ( -3.491481338843133355E-15, 1.224646799147353207E-16, -1.000000000000000000 ) ) ;
#210 = FACE_OUTER_BOUND ( 'NONE', #118, .T. ) ;
#211 = DIRECTION ( 'NONE',  ( 3.491481338843133355E-15, -1.224646799147353207E-16, 1.000000000000000000 ) ) ;
#212 = ORIENTED_EDGE ( 'NONE', *, *, #22, .T. ) ;
#213 = VERTEX_POINT ( 'NONE', #143 ) ;
#214 = PERSON ( 'UNSPECIFIED', 'UNSPECIFIED', 'UNSPECIFIED', ('UNSPECIFIED'), ('UNSPECIFIED'), ('UNSPECIFIED') ) ;
#215 = CARTESIAN_POINT ( 'NONE',  ( 7.895337722223342455E-14, -2.769311685025902367E-15, 22.61314598587939528 ) ) ;
#216 = ORIENTED_EDGE ( 'NONE', *, *, #145, .T. ) ;
#217 = CARTESIAN_POINT ( 'NONE',  ( 7.895337722223342455E-14, 1.749999999999992450, 22.61314598587939528 ) ) ;
#218 = EDGE_LOOP ( 'NONE', ( #42 ) ) ;
#219 = PERSON_AND_ORGANIZATION ( #214, #63 ) ;
#220 = CC_DESIGN_PERSON_AND_ORGANIZATION_ASSIGNMENT ( #137, #87, ( #186 ) ) ;
#221 = PERSON_AND_ORGANIZATION ( #214, #63 ) ;
#222 = CALENDAR_DATE ( 2021, 30, 11 ) ;
#223 = AXIS2_PLACEMENT_3D ( 'NONE', #146, #57, #100 ) ;
#224 = CLOSED_SHELL ( 'NONE', ( #124, #36, #131, #156, #135 ) ) ;
#225 = ADVANCED_FACE ( 'NONE', ( #210 ), #83, .T. ) ;
#226 = DIRECTION ( 'NONE',  ( 4.576829715749140506E-31, 1.000000000000000000, 1.288263037649127644E-16 ) ) ;
#227 = PLANE ( 'NONE',  #31 ) ;
#228 = DIRECTION ( 'NONE',  ( -4.275831445896958607E-31, -1.000000000000000000, -1.224646799147353207E-16 ) ) ;
#229 = DIRECTION ( 'NONE',  ( -3.491481338843133355E-15, 1.224646799147353207E-16, -1.000000000000000000 ) ) ;
#230 = EDGE_LOOP ( 'NONE', ( #105 ) ) ;
#231 = DIRECTION ( 'NONE',  ( -3.491481338843133355E-15, 1.224646799147353207E-16, -1.000000000000000000 ) ) ;
#232 = COORDINATED_UNIVERSAL_TIME_OFFSET ( 1, 0, .AHEAD. ) ;
#233 = APPROVAL ( #49, 'UNSPECIFIED' ) ;
#234 = EDGE_LOOP ( 'NONE', ( #9 ) ) ;
#235 = APPROVAL_ROLE ( '' ) ;
#236 = ORIENTED_EDGE ( 'NONE', *, *, #108, .T. ) ;
#237 = CALENDAR_DATE ( 2021, 30, 11 ) ;
#238 = CALENDAR_DATE ( 2021, 30, 11 ) ;
#239 = LOCAL_TIME ( 15, 8, 54.00000000000000000, #26 ) ;
#240 = DATE_TIME_ROLE ( 'classification_date' ) ;
#241 = APPROVAL ( #153, 'UNSPECIFIED' ) ;
#242 = CONICAL_SURFACE ( 'NONE', #193, 1.749999999999995337, 0.5235987755982944858 ) ;
#243 =( NAMED_UNIT ( * ) SI_UNIT ( $, .STERADIAN. ) SOLID_ANGLE_UNIT ( ) );
ENDSEC;
END-ISO-10303-21;
