ISO-10303-21;
HEADER;
FILE_DESCRIPTION (( 'STEP AP203' ),
    '1' );
FILE_NAME ('969437.step',
    '2021-11-30T14:08:54',
    ( '' ),
    ( '' ),
    'SwSTEP 2.0',
    'SolidWorks 2019',
    '' );
FILE_SCHEMA (( 'CONFIG_CONTROL_DESIGN' ));
ENDSEC;

DATA;
#1 = PERSON_AND_ORGANIZATION ( #120, #195 ) ;
#2 = UNCERTAINTY_MEASURE_WITH_UNIT (LENGTH_MEASURE( 1.000000000000000082E-05 ), #135, 'distance_accuracy_value', 'NONE');
#3 = ADVANCED_BREP_SHAPE_REPRESENTATION ( '969437', ( #66, #148, #95 ), #136 ) ;
#4 = CONICAL_SURFACE ( 'NONE', #158, 1.749999999999995337, 0.5235987755982980385 ) ;
#5 = ORIENTED_EDGE ( 'NONE', *, *, #124, .T. ) ;
#6 = EDGE_LOOP ( 'NONE', ( #8 ) ) ;
#7 = APPROVAL ( #62, 'UNSPECIFIED' ) ;
#8 = ORIENTED_EDGE ( 'NONE', *, *, #17, .T. ) ;
#9 = APPROVAL ( #223, 'UNSPECIFIED' ) ;
#10 = CARTESIAN_POINT ( 'NONE',  ( 7.865100606860567412E-14, -2.758705932638653108E-15, 22.52654344550095189 ) ) ;
#11 = CC_DESIGN_APPROVAL ( #9, ( #27 ) ) ;
#12 = CARTESIAN_POINT ( 'NONE',  ( 2.199633243471174140E-13, -7.715274834628325378E-15, 63.00000000000000000 ) ) ;
#13 = DIRECTION ( 'NONE',  ( 0.0000000000000000000, 1.000000000000000000, 0.0000000000000000000 ) ) ;
#14 = DIRECTION ( 'NONE',  ( -3.491481338843133355E-15, 1.224646799147353207E-16, -1.000000000000000000 ) ) ;
#15 = CARTESIAN_POINT ( 'NONE',  ( 2.187413058785222763E-13, 1.749999999999993339, 62.64999999999999858 ) ) ;
#16 = VERTEX_POINT ( 'NONE', #233 ) ;
#17 = EDGE_CURVE ( 'NONE', #132, #132, #237, .T. ) ;
#18 = APPROVAL_ROLE ( '' ) ;
#19 = LOCAL_TIME ( 15, 8, 54.00000000000000000, #224 ) ;
#20 = CARTESIAN_POINT ( 'NONE',  ( -7.499808356103268223E-31, 2.630578658788899492E-32, -2.148030485704458192E-16 ) ) ;
#21 = ADVANCED_FACE ( 'NONE', ( #181 ), #50, .T. ) ;
#22 = PERSON_AND_ORGANIZATION_ROLE ( 'design_owner' ) ;
#23 = AXIS2_PLACEMENT_3D ( 'NONE', #217, #133, #206 ) ;
#24 = DATE_TIME_ROLE ( 'creation_date' ) ;
#25 = AXIS2_PLACEMENT_3D ( 'NONE', #150, #220, #222 ) ;
#26 = CONICAL_SURFACE ( 'NONE', #163, 2.053999999999997161, 0.7853981633974428389 ) ;
#27 = PRODUCT_DEFINITION_FORMATION_WITH_SPECIFIED_SOURCE ( 'ANY', '', #103, .NOT_KNOWN. ) ;
#28 = ADVANCED_FACE ( 'NONE', ( #89 ), #203, .F. ) ;
#29 = CARTESIAN_POINT ( 'NONE',  ( 2.199633243471174140E-13, -7.715274834628325378E-15, 63.00000000000000000 ) ) ;
#30 = DIRECTION ( 'NONE',  ( -4.688242318372051016E-31, -1.000000000000000000, -1.319622897377684952E-16 ) ) ;
#31 = DIRECTION ( 'NONE',  ( 0.0000000000000000000, 1.000000000000000000, 0.0000000000000000000 ) ) ;
#32 = AXIS2_PLACEMENT_3D ( 'NONE', #83, #14, #91 ) ;
#33 = CARTESIAN_POINT ( 'NONE',  ( 2.199633243471174140E-13, 1.049831847863289378E-32, 63.00000000000000000 ) ) ;
#34 = SHAPE_DEFINITION_REPRESENTATION ( #229, #3 ) ;
#35 = ADVANCED_FACE ( 'NONE', ( #110, #72 ), #219, .T. ) ;
#36 = VERTEX_POINT ( 'NONE', #55 ) ;
#37 = DATE_AND_TIME ( #112, #147 ) ;
#38 = FACE_OUTER_BOUND ( 'NONE', #6, .T. ) ;
#39 = PERSON_AND_ORGANIZATION ( #120, #195 ) ;
#40 = FACE_OUTER_BOUND ( 'NONE', #125, .T. ) ;
#41 = PERSON_AND_ORGANIZATION_ROLE ( 'classification_officer' ) ;
#42 = ADVANCED_FACE ( 'NONE', ( #184, #202 ), #26, .T. ) ;
#43 = APPROVAL_PERSON_ORGANIZATION ( #130, #218, #18 ) ;
#44 = DIRECTION ( 'NONE',  ( 0.0000000000000000000, 0.0000000000000000000, 1.000000000000000000 ) ) ;
#45 = CONICAL_SURFACE ( 'NONE', #104, 1.400000000000001021, 0.7853981633974437271 ) ;
#46 = CIRCLE ( 'NONE', #25, 2.053999999999997161 ) ;
#47 = ORIENTED_EDGE ( 'NONE', *, *, #200, .T. ) ;
#48 = EDGE_LOOP ( 'NONE', ( #123 ) ) ;
#49 = ORIENTED_EDGE ( 'NONE', *, *, #200, .F. ) ;
#50 = PLANE ( 'NONE',  #226 ) ;
#51 = DIRECTION ( 'NONE',  ( 0.0000000000000000000, 1.000000000000000000, 0.0000000000000000000 ) ) ;
#52 = PLANE ( 'NONE',  #238 ) ;
#53 = CALENDAR_DATE ( 2021, 30, 11 ) ;
#54 = VERTEX_POINT ( 'NONE', #76 ) ;
#55 = CARTESIAN_POINT ( 'NONE',  ( 7.865100606860567412E-14, 1.749999999999992450, 22.52654344550095189 ) ) ;
#56 = FACE_OUTER_BOUND ( 'NONE', #63, .T. ) ;
#57 = DATE_AND_TIME ( #241, #58 ) ;
#58 = LOCAL_TIME ( 15, 8, 54.00000000000000000, #114 ) ;
#59 = APPROVAL_STATUS ( 'not_yet_approved' ) ;
#60 = COORDINATED_UNIVERSAL_TIME_OFFSET ( 1, 0, .AHEAD. ) ;
#61 = AXIS2_PLACEMENT_3D ( 'NONE', #221, #118, #75 ) ;
#62 = APPROVAL_STATUS ( 'not_yet_approved' ) ;
#63 = EDGE_LOOP ( 'NONE', ( #230 ) ) ;
#64 = ADVANCED_FACE ( 'NONE', ( #182, #161 ), #45, .T. ) ;
#65 = EDGE_LOOP ( 'NONE', ( #49 ) ) ;
#66 = MANIFOLD_SOLID_BREP ( 'Corps-Déplacer/Copier1[1]', #215 ) ;
#67 = EDGE_LOOP ( 'NONE', ( #174 ) ) ;
#68 = CC_DESIGN_PERSON_AND_ORGANIZATION_ASSIGNMENT ( #39, #205, ( #27 ) ) ;
#69 = ORIENTED_EDGE ( 'NONE', *, *, #17, .F. ) ;
#70 = DIRECTION ( 'NONE',  ( 0.0000000000000000000, 1.000000000000000000, 0.0000000000000000000 ) ) ;
#71 = CARTESIAN_POINT ( 'NONE',  ( 7.681258945454893382E-14, -2.694222958124176809E-15, 22.00000000000000000 ) ) ;
#72 = FACE_OUTER_BOUND ( 'NONE', #197, .T. ) ;
#73 = VERTEX_POINT ( 'NONE', #185 ) ;
#74 = COORDINATED_UNIVERSAL_TIME_OFFSET ( 1, 0, .AHEAD. ) ;
#75 = DIRECTION ( 'NONE',  ( 0.0000000000000000000, 1.000000000000000000, 0.0000000000000000000 ) ) ;
#76 = CARTESIAN_POINT ( 'NONE',  ( 0.0000000000000000000, 1.754000000000000670, 0.0000000000000000000 ) ) ;
#77 = DIRECTION ( 'NONE',  ( 3.491481338843133355E-15, -1.224646799147353207E-16, 1.000000000000000000 ) ) ;
#78 = APPLICATION_PROTOCOL_DEFINITION ( 'international standard', 'config_control_design', 1994, #179 ) ;
#79 = DATE_AND_TIME ( #137, #19 ) ;
#80 = ADVANCED_FACE ( 'NONE', ( #234, #159 ), #4, .T. ) ;
#81 = EDGE_LOOP ( 'NONE', ( #193 ) ) ;
#82 = CC_DESIGN_SECURITY_CLASSIFICATION ( #122, ( #27 ) ) ;
#83 = CARTESIAN_POINT ( 'NONE',  ( 7.681258945454893382E-14, -2.694222958124176809E-15, 22.00000000000000000 ) ) ;
#84 = CIRCLE ( 'NONE', #117, 1.754000000000000670 ) ;
#85 = EDGE_LOOP ( 'NONE', ( #213 ) ) ;
#86 = CARTESIAN_POINT ( 'NONE',  ( 0.0000000000000000000, 0.0000000000000000000, 0.0000000000000000000 ) ) ;
#87 =( NAMED_UNIT ( * ) SI_UNIT ( $, .STERADIAN. ) SOLID_ANGLE_UNIT ( ) );
#88 = PRODUCT_DEFINITION ( 'UNKNOWN', '', #27, #192 ) ;
#89 = FACE_OUTER_BOUND ( 'NONE', #101, .T. ) ;
#90 = DIRECTION ( 'NONE',  ( -3.491481338843133355E-15, 1.224646799147353207E-16, -1.000000000000000000 ) ) ;
#91 = DIRECTION ( 'NONE',  ( 0.0000000000000000000, 1.000000000000000000, 0.0000000000000000000 ) ) ;
#92 = FACE_OUTER_BOUND ( 'NONE', #176, .T. ) ;
#93 = CARTESIAN_POINT ( 'NONE',  ( 1.047444401652940007E-15, 2.053999999999997161, 0.3000000000000000444 ) ) ;
#94 = APPROVAL_DATE_TIME ( #98, #9 ) ;
#95 = AXIS2_PLACEMENT_3D ( 'NONE', #121, #44, #211 ) ;
#96 = PLANE ( 'NONE',  #139 ) ;
#97 = APPROVAL_ROLE ( '' ) ;
#98 = DATE_AND_TIME ( #53, #140 ) ;
#99 = CC_DESIGN_DATE_AND_TIME_ASSIGNMENT ( #79, #24, ( #88 ) ) ;
#100 = CLOSED_SHELL ( 'NONE', ( #228, #42, #127, #21 ) ) ;
#101 = EDGE_LOOP ( 'NONE', ( #102 ) ) ;
#102 = ORIENTED_EDGE ( 'NONE', *, *, #124, .F. ) ;
#103 = PRODUCT ( '969437', '969437', '', ( #119 ) ) ;
#104 = AXIS2_PLACEMENT_3D ( 'NONE', #29, #105, #51 ) ;
#105 = DIRECTION ( 'NONE',  ( -3.491481338843133355E-15, 1.224646799147353207E-16, -1.000000000000000000 ) ) ;
#106 = CC_DESIGN_DATE_AND_TIME_ASSIGNMENT ( #37, #170, ( #122 ) ) ;
#107 = CARTESIAN_POINT ( 'NONE',  ( 1.047444401652939218E-15, -3.673940397442057033E-17, 0.2999999999999997669 ) ) ;
#108 = APPLICATION_PROTOCOL_DEFINITION ( 'international standard', 'config_control_design', 1994, #164 ) ;
#109 = CIRCLE ( 'NONE', #209, 1.400000000000001021 ) ;
#110 = FACE_OUTER_BOUND ( 'NONE', #48, .T. ) ;
#111 = CARTESIAN_POINT ( 'NONE',  ( 7.681258945454893382E-14, 1.540253296793726198E-32, 22.00000000000000000 ) ) ;
#112 = CALENDAR_DATE ( 2021, 30, 11 ) ;
#113 = DIRECTION ( 'NONE',  ( 0.0000000000000000000, 1.000000000000000000, 0.0000000000000000000 ) ) ;
#114 = COORDINATED_UNIVERSAL_TIME_OFFSET ( 1, 0, .AHEAD. ) ;
#115 = DIRECTION ( 'NONE',  ( 3.491481338843133355E-15, -1.224646799147353207E-16, 1.000000000000000000 ) ) ;
#116 = CC_DESIGN_PERSON_AND_ORGANIZATION_ASSIGNMENT ( #210, #22, ( #103 ) ) ;
#117 = AXIS2_PLACEMENT_3D ( 'NONE', #20, #90, #166 ) ;
#118 = DIRECTION ( 'NONE',  ( -3.491481338843133355E-15, 1.224646799147353207E-16, -1.000000000000000000 ) ) ;
#119 = MECHANICAL_CONTEXT ( 'NONE', #164, 'mechanical' ) ;
#120 = PERSON ( 'UNSPECIFIED', 'UNSPECIFIED', 'UNSPECIFIED', ('UNSPECIFIED'), ('UNSPECIFIED'), ('UNSPECIFIED') ) ;
#121 = CARTESIAN_POINT ( 'NONE',  ( 0.0000000000000000000, 0.0000000000000000000, 0.0000000000000000000 ) ) ;
#122 = SECURITY_CLASSIFICATION ( '', '', #189 ) ;
#123 = ORIENTED_EDGE ( 'NONE', *, *, #231, .F. ) ;
#124 = EDGE_CURVE ( 'NONE', #16, #16, #109, .T. ) ;
#125 = EDGE_LOOP ( 'NONE', ( #177 ) ) ;
#126 = DIRECTION ( 'NONE',  ( -3.491481338843133355E-15, 1.224646799147353207E-16, -1.000000000000000000 ) ) ;
#127 = ADVANCED_FACE ( 'NONE', ( #40, #56 ), #162, .T. ) ;
#128 = DIRECTION ( 'NONE',  ( 3.491481338843133355E-15, -1.224646799147353207E-16, 1.000000000000000000 ) ) ;
#129 = DIRECTION ( 'NONE',  ( -4.275831445896958607E-31, -1.000000000000000000, -1.224646799147353207E-16 ) ) ;
#130 = PERSON_AND_ORGANIZATION ( #120, #195 ) ;
#131 = AXIS2_PLACEMENT_3D ( 'NONE', #71, #144, #13 ) ;
#132 = VERTEX_POINT ( 'NONE', #152 ) ;
#133 = DIRECTION ( 'NONE',  ( -3.491481338843133355E-15, 1.224646799147353207E-16, -1.000000000000000000 ) ) ;
#134 = PERSON_AND_ORGANIZATION_ROLE ( 'design_supplier' ) ;
#135 =( LENGTH_UNIT ( ) NAMED_UNIT ( * ) SI_UNIT ( .MILLI., .METRE. ) );
#136 =( GEOMETRIC_REPRESENTATION_CONTEXT ( 3 ) GLOBAL_UNCERTAINTY_ASSIGNED_CONTEXT ( ( #2 ) ) GLOBAL_UNIT_ASSIGNED_CONTEXT ( ( #135, #235, #87 ) ) REPRESENTATION_CONTEXT ( 'NONE', 'WORKASPACE' ) );
#137 = CALENDAR_DATE ( 2021, 30, 11 ) ;
#138 = APPROVAL_DATE_TIME ( #171, #7 ) ;
#139 = AXIS2_PLACEMENT_3D ( 'NONE', #240, #77, #186 ) ;
#140 = LOCAL_TIME ( 15, 8, 54.00000000000000000, #153 ) ;
#141 = EDGE_LOOP ( 'NONE', ( #157 ) ) ;
#142 = CIRCLE ( 'NONE', #61, 1.749999999999995337 ) ;
#143 = CARTESIAN_POINT ( 'NONE',  ( 7.681258945454893382E-14, 1.540253296793726198E-32, 22.00000000000000000 ) ) ;
#144 = DIRECTION ( 'NONE',  ( -3.491481338843133355E-15, 1.224646799147353207E-16, -1.000000000000000000 ) ) ;
#145 = DIRECTION ( 'NONE',  ( -3.491481338843133355E-15, 1.224646799147353207E-16, -1.000000000000000000 ) ) ;
#146 = PERSON_AND_ORGANIZATION ( #120, #195 ) ;
#147 = LOCAL_TIME ( 15, 8, 54.00000000000000000, #74 ) ;
#148 = MANIFOLD_SOLID_BREP ( 'Corps-Déplacer/Copier1[2]', #100 ) ;
#149 = CC_DESIGN_PERSON_AND_ORGANIZATION_ASSIGNMENT ( #187, #134, ( #27 ) ) ;
#150 = CARTESIAN_POINT ( 'NONE',  ( 1.047444401652939218E-15, -3.673940397442057033E-17, 0.2999999999999997669 ) ) ;
#151 = APPROVAL_ROLE ( '' ) ;
#152 = CARTESIAN_POINT ( 'NONE',  ( 7.681258945454893382E-14, 2.054000000000000270, 22.00000000000000000 ) ) ;
#153 = COORDINATED_UNIVERSAL_TIME_OFFSET ( 1, 0, .AHEAD. ) ;
#154 = CC_DESIGN_PERSON_AND_ORGANIZATION_ASSIGNMENT ( #155, #243, ( #88 ) ) ;
#155 = PERSON_AND_ORGANIZATION ( #120, #195 ) ;
#156 = APPROVAL_PERSON_ORGANIZATION ( #1, #9, #151 ) ;
#157 = ORIENTED_EDGE ( 'NONE', *, *, #191, .F. ) ;
#158 = AXIS2_PLACEMENT_3D ( 'NONE', #10, #232, #70 ) ;
#159 = FACE_BOUND ( 'NONE', #85, .T. ) ;
#160 = DIRECTION ( 'NONE',  ( 4.275831445896958607E-31, 1.000000000000000000, 1.224646799147353207E-16 ) ) ;
#161 = FACE_BOUND ( 'NONE', #178, .T. ) ;
#162 = CYLINDRICAL_SURFACE ( 'NONE', #23, 2.054000000000000270 ) ;
#163 = AXIS2_PLACEMENT_3D ( 'NONE', #107, #216, #30 ) ;
#164 = APPLICATION_CONTEXT ( 'configuration controlled 3d designs of mechanical parts and assemblies' ) ;
#165 = CC_DESIGN_APPROVAL ( #218, ( #122 ) ) ;
#166 = DIRECTION ( 'NONE',  ( 4.275831445896958607E-31, 1.000000000000000000, 1.224646799147353207E-16 ) ) ;
#167 = APPROVAL_DATE_TIME ( #57, #218 ) ;
#168 = DIRECTION ( 'NONE',  ( -3.491481338843133355E-15, 1.224646799147353207E-16, -1.000000000000000000 ) ) ;
#169 = CALENDAR_DATE ( 2021, 30, 11 ) ;
#170 = DATE_TIME_ROLE ( 'classification_date' ) ;
#171 = DATE_AND_TIME ( #169, #227 ) ;
#172 = AXIS2_PLACEMENT_3D ( 'NONE', #188, #236, #31 ) ;
#173 = ADVANCED_FACE ( 'NONE', ( #38 ), #52, .F. ) ;
#174 = ORIENTED_EDGE ( 'NONE', *, *, #194, .F. ) ;
#175 = PRODUCT_RELATED_PRODUCT_CATEGORY ( 'detail', '', ( #103 ) ) ;
#176 = EDGE_LOOP ( 'NONE', ( #47 ) ) ;
#177 = ORIENTED_EDGE ( 'NONE', *, *, #190, .F. ) ;
#178 = EDGE_LOOP ( 'NONE', ( #5 ) ) ;
#179 = APPLICATION_CONTEXT ( 'configuration controlled 3d designs of mechanical parts and assemblies' ) ;
#180 = ORIENTED_EDGE ( 'NONE', *, *, #194, .T. ) ;
#181 = FACE_OUTER_BOUND ( 'NONE', #141, .T. ) ;
#182 = FACE_OUTER_BOUND ( 'NONE', #67, .T. ) ;
#183 = VERTEX_POINT ( 'NONE', #15 ) ;
#184 = FACE_BOUND ( 'NONE', #65, .T. ) ;
#185 = CARTESIAN_POINT ( 'NONE',  ( 7.681258945454893382E-14, 2.054000000000000270, 22.00000000000000000 ) ) ;
#186 = DIRECTION ( 'NONE',  ( -4.275831445896958607E-31, -1.000000000000000000, -1.224646799147353207E-16 ) ) ;
#187 = PERSON_AND_ORGANIZATION ( #120, #195 ) ;
#188 = CARTESIAN_POINT ( 'NONE',  ( 2.187413058785222763E-13, -7.672412196658167445E-15, 62.64999999999999858 ) ) ;
#189 = SECURITY_CLASSIFICATION_LEVEL ( 'unclassified' ) ;
#190 = EDGE_CURVE ( 'NONE', #204, #204, #46, .T. ) ;
#191 = EDGE_CURVE ( 'NONE', #73, #73, #199, .T. ) ;
#192 = DESIGN_CONTEXT ( 'detailed design', #179, 'design' ) ;
#193 = ORIENTED_EDGE ( 'NONE', *, *, #190, .T. ) ;
#194 = EDGE_CURVE ( 'NONE', #183, #183, #214, .T. ) ;
#195 = ORGANIZATION ( 'UNSPECIFIED', 'UNSPECIFIED', '' ) ;
#196 = EDGE_LOOP ( 'NONE', ( #69 ) ) ;
#197 = EDGE_LOOP ( 'NONE', ( #180 ) ) ;
#198 = AXIS2_PLACEMENT_3D ( 'NONE', #86, #126, #201 ) ;
#199 = CIRCLE ( 'NONE', #131, 2.054000000000002935 ) ;
#200 = EDGE_CURVE ( 'NONE', #54, #54, #84, .T. ) ;
#201 = DIRECTION ( 'NONE',  ( 4.275831445896958607E-31, 1.000000000000000000, 1.224646799147353207E-16 ) ) ;
#202 = FACE_OUTER_BOUND ( 'NONE', #81, .T. ) ;
#203 = PLANE ( 'NONE',  #208 ) ;
#204 = VERTEX_POINT ( 'NONE', #93 ) ;
#205 = PERSON_AND_ORGANIZATION_ROLE ( 'creator' ) ;
#206 = DIRECTION ( 'NONE',  ( 4.275831445896958607E-31, 1.000000000000000000, 1.224646799147353454E-16 ) ) ;
#207 = APPROVAL_PERSON_ORGANIZATION ( #225, #7, #97 ) ;
#208 = AXIS2_PLACEMENT_3D ( 'NONE', #33, #145, #160 ) ;
#209 = AXIS2_PLACEMENT_3D ( 'NONE', #12, #168, #113 ) ;
#210 = PERSON_AND_ORGANIZATION ( #120, #195 ) ;
#211 = DIRECTION ( 'NONE',  ( 1.000000000000000000, 0.0000000000000000000, 0.0000000000000000000 ) ) ;
#212 = CC_DESIGN_PERSON_AND_ORGANIZATION_ASSIGNMENT ( #146, #41, ( #122 ) ) ;
#213 = ORIENTED_EDGE ( 'NONE', *, *, #231, .T. ) ;
#214 = CIRCLE ( 'NONE', #172, 1.750000000000000888 ) ;
#215 = CLOSED_SHELL ( 'NONE', ( #173, #80, #35, #64, #28 ) ) ;
#216 = DIRECTION ( 'NONE',  ( 3.491481338843133355E-15, -1.224646799147353207E-16, 1.000000000000000000 ) ) ;
#217 = CARTESIAN_POINT ( 'NONE',  ( 0.0000000000000000000, 0.0000000000000000000, 0.0000000000000000000 ) ) ;
#218 = APPROVAL ( #59, 'UNSPECIFIED' ) ;
#219 = CYLINDRICAL_SURFACE ( 'NONE', #198, 1.749999999999998002 ) ;
#220 = DIRECTION ( 'NONE',  ( -3.491481338843133355E-15, 1.224646799147353207E-16, -1.000000000000000000 ) ) ;
#221 = CARTESIAN_POINT ( 'NONE',  ( 7.865100606860567412E-14, -2.758705932638653108E-15, 22.52654344550095189 ) ) ;
#222 = DIRECTION ( 'NONE',  ( 4.688242318372051016E-31, 1.000000000000000000, 1.319622897377684952E-16 ) ) ;
#223 = APPROVAL_STATUS ( 'not_yet_approved' ) ;
#224 = COORDINATED_UNIVERSAL_TIME_OFFSET ( 1, 0, .AHEAD. ) ;
#225 = PERSON_AND_ORGANIZATION ( #120, #195 ) ;
#226 = AXIS2_PLACEMENT_3D ( 'NONE', #143, #128, #129 ) ;
#227 = LOCAL_TIME ( 15, 8, 54.00000000000000000, #60 ) ;
#228 = ADVANCED_FACE ( 'NONE', ( #92 ), #96, .F. ) ;
#229 = PRODUCT_DEFINITION_SHAPE ( 'NONE', 'NONE',  #88 ) ;
#230 = ORIENTED_EDGE ( 'NONE', *, *, #191, .T. ) ;
#231 = EDGE_CURVE ( 'NONE', #36, #36, #142, .T. ) ;
#232 = DIRECTION ( 'NONE',  ( -3.491481338843133355E-15, 1.224646799147353207E-16, -1.000000000000000000 ) ) ;
#233 = CARTESIAN_POINT ( 'NONE',  ( 2.199633243471174140E-13, 1.399999999999993250, 63.00000000000000000 ) ) ;
#234 = FACE_OUTER_BOUND ( 'NONE', #196, .T. ) ;
#235 =( NAMED_UNIT ( * ) PLANE_ANGLE_UNIT ( ) SI_UNIT ( $, .RADIAN. ) );
#236 = DIRECTION ( 'NONE',  ( -3.491481338843133355E-15, 1.224646799147353207E-16, -1.000000000000000000 ) ) ;
#237 = CIRCLE ( 'NONE', #32, 2.054000000000002935 ) ;
#238 = AXIS2_PLACEMENT_3D ( 'NONE', #111, #115, #239 ) ;
#239 = DIRECTION ( 'NONE',  ( -4.275831445896958607E-31, -1.000000000000000000, -1.224646799147353207E-16 ) ) ;
#240 = CARTESIAN_POINT ( 'NONE',  ( -3.749904178051634112E-31, 1.315289329394449746E-32, -1.074015242852229096E-16 ) ) ;
#241 = CALENDAR_DATE ( 2021, 30, 11 ) ;
#242 = CC_DESIGN_APPROVAL ( #7, ( #88 ) ) ;
#243 = PERSON_AND_ORGANIZATION_ROLE ( 'creator' ) ;
ENDSEC;
END-ISO-10303-21;
