ISO-10303-21;
HEADER;
FILE_DESCRIPTION (( 'STEP AP203' ),
    '1' );
FILE_NAME ('969436.step',
    '2021-11-30T14:02:15',
    ( '' ),
    ( '' ),
    'SwSTEP 2.0',
    'SolidWorks 2019',
    '' );
FILE_SCHEMA (( 'CONFIG_CONTROL_DESIGN' ));
ENDSEC;

DATA;
#1 = EDGE_LOOP ( 'NONE', ( #211 ) ) ;
#2 = FACE_BOUND ( 'NONE', #193, .T. ) ;
#3 = DIRECTION ( 'NONE',  ( -3.844171545683110649E-31, -1.000000000000000000, -1.352547620366150029E-16 ) ) ;
#4 = SECURITY_CLASSIFICATION_LEVEL ( 'unclassified' ) ;
#5 = CARTESIAN_POINT ( 'NONE',  ( 0.0000000000000000000, 0.0000000000000000000, 0.0000000000000000000 ) ) ;
#6 = PRODUCT_RELATED_PRODUCT_CATEGORY ( 'detail', '', ( #74 ) ) ;
#7 = PLANE ( 'NONE',  #167 ) ;
#8 = DIRECTION ( 'NONE',  ( 3.491481338843133355E-15, -1.224646799147353207E-16, 1.000000000000000000 ) ) ;
#9 = CC_DESIGN_APPROVAL ( #178, ( #242 ) ) ;
#10 = DIRECTION ( 'NONE',  ( -3.491481338843133355E-15, 1.224646799147353207E-16, -1.000000000000000000 ) ) ;
#11 = DIRECTION ( 'NONE',  ( 3.491481338843133355E-15, -1.224646799147353207E-16, 1.000000000000000000 ) ) ;
#12 = CC_DESIGN_PERSON_AND_ORGANIZATION_ASSIGNMENT ( #205, #86, ( #50 ) ) ;
#13 = AXIS2_PLACEMENT_3D ( 'NONE', #186, #11, #141 ) ;
#14 = ORIENTED_EDGE ( 'NONE', *, *, #131, .F. ) ;
#15 = EDGE_LOOP ( 'NONE', ( #75 ) ) ;
#16 = DATE_AND_TIME ( #116, #80 ) ;
#17 = AXIS2_PLACEMENT_3D ( 'NONE', #36, #83, #62 ) ;
#18 = AXIS2_PLACEMENT_3D ( 'NONE', #5, #166, #199 ) ;
#19 = SHAPE_DEFINITION_REPRESENTATION ( #230, #60 ) ;
#20 = FACE_OUTER_BOUND ( 'NONE', #114, .T. ) ;
#21 = ORIENTED_EDGE ( 'NONE', *, *, #171, .F. ) ;
#22 = CIRCLE ( 'NONE', #108, 1.499999999999996003 ) ;
#23 = DIRECTION ( 'NONE',  ( 4.275831445896958607E-31, 1.000000000000000000, 1.224646799147353207E-16 ) ) ;
#24 = CARTESIAN_POINT ( 'NONE',  ( 8.728703347107833388E-16, 2.003999999999997339, 0.2500000000000000555 ) ) ;
#25 = PLANE ( 'NONE',  #130 ) ;
#26 = DIRECTION ( 'NONE',  ( -3.491481338843133355E-15, 1.224646799147353207E-16, -1.000000000000000000 ) ) ;
#27 = FACE_OUTER_BOUND ( 'NONE', #160, .T. ) ;
#28 = DIRECTION ( 'NONE',  ( 0.0000000000000000000, 1.000000000000000000, 0.0000000000000000000 ) ) ;
#29 = APPROVAL_PERSON_ORGANIZATION ( #112, #100, #134 ) ;
#30 = ADVANCED_FACE ( 'NONE', ( #181, #164 ), #232, .T. ) ;
#31 = DIRECTION ( 'NONE',  ( 1.000000000000000000, 0.0000000000000000000, 0.0000000000000000000 ) ) ;
#32 = ORIENTED_EDGE ( 'NONE', *, *, #158, .F. ) ;
#33 = COORDINATED_UNIVERSAL_TIME_OFFSET ( 1, 0, .AHEAD. ) ;
#34 = ADVANCED_FACE ( 'NONE', ( #201 ), #25, .F. ) ;
#35 = LOCAL_TIME ( 15, 2, 15.00000000000000000, #140 ) ;
#36 = CARTESIAN_POINT ( 'NONE',  ( 8.728703347107825500E-16, -3.061616997868380553E-17, 0.2499999999999997780 ) ) ;
#37 = VERTEX_POINT ( 'NONE', #200 ) ;
#38 = AXIS2_PLACEMENT_3D ( 'NONE', #122, #106, #147 ) ;
#39 = ADVANCED_FACE ( 'NONE', ( #78 ), #7, .F. ) ;
#40 = PERSON ( 'UNSPECIFIED', 'UNSPECIFIED', 'UNSPECIFIED', ('UNSPECIFIED'), ('UNSPECIFIED'), ('UNSPECIFIED') ) ;
#41 = DIRECTION ( 'NONE',  ( -3.491481338843133355E-15, 1.224646799147353207E-16, -1.000000000000000000 ) ) ;
#42 = CARTESIAN_POINT ( 'NONE',  ( 3.821039127481012190E-31, -1.340240110931509710E-32, 1.094389102118779895E-16 ) ) ;
#43 = VERTEX_POINT ( 'NONE', #73 ) ;
#44 = AXIS2_PLACEMENT_3D ( 'NONE', #53, #124, #163 ) ;
#45 = EDGE_CURVE ( 'NONE', #213, #213, #144, .T. ) ;
#46 = APPROVAL_PERSON_ORGANIZATION ( #110, #178, #84 ) ;
#47 = MECHANICAL_CONTEXT ( 'NONE', #64, 'mechanical' ) ;
#48 = ADVANCED_FACE ( 'NONE', ( #143, #215 ), #150, .T. ) ;
#49 = CALENDAR_DATE ( 2021, 30, 11 ) ;
#50 = PRODUCT_DEFINITION_FORMATION_WITH_SPECIFIED_SOURCE ( 'ANY', '', #74, .NOT_KNOWN. ) ;
#51 = ORIENTED_EDGE ( 'NONE', *, *, #171, .T. ) ;
#52 = MANIFOLD_SOLID_BREP ( 'Corps-Déplacer/Copier1[2]', #96 ) ;
#53 = CARTESIAN_POINT ( 'NONE',  ( 0.0000000000000000000, 0.0000000000000000000, 0.0000000000000000000 ) ) ;
#54 = ADVANCED_FACE ( 'NONE', ( #27, #107 ), #111, .T. ) ;
#55 = VERTEX_POINT ( 'NONE', #214 ) ;
#56 = CONICAL_SURFACE ( 'NONE', #222, 2.003999999999997339, 0.7853981633974435050 ) ;
#57 = PLANE ( 'NONE',  #13 ) ;
#58 = DIRECTION ( 'NONE',  ( 3.491481338843133355E-15, -1.224646799147353207E-16, 1.000000000000000000 ) ) ;
#59 = VERTEX_POINT ( 'NONE', #24 ) ;
#60 = ADVANCED_BREP_SHAPE_REPRESENTATION ( '969436', ( #151, #52, #89 ), #207 ) ;
#61 = DIRECTION ( 'NONE',  ( -4.275831445896958607E-31, -1.000000000000000000, -1.224646799147353207E-16 ) ) ;
#62 = DIRECTION ( 'NONE',  ( 3.844171545683110649E-31, 1.000000000000000000, 1.352547620366150029E-16 ) ) ;
#63 = PERSON_AND_ORGANIZATION_ROLE ( 'design_supplier' ) ;
#64 = APPLICATION_CONTEXT ( 'configuration controlled 3d designs of mechanical parts and assemblies' ) ;
#65 =( NAMED_UNIT ( * ) SI_UNIT ( $, .STERADIAN. ) SOLID_ANGLE_UNIT ( ) );
#66 = CC_DESIGN_SECURITY_CLASSIFICATION ( #69, ( #50 ) ) ;
#67 = ORIENTED_EDGE ( 'NONE', *, *, #131, .T. ) ;
#68 = EDGE_LOOP ( 'NONE', ( #67 ) ) ;
#69 = SECURITY_CLASSIFICATION ( '', '', #4 ) ;
#70 = APPROVAL_STATUS ( 'not_yet_approved' ) ;
#71 = ORIENTED_EDGE ( 'NONE', *, *, #45, .T. ) ;
#72 = AXIS2_PLACEMENT_3D ( 'NONE', #170, #202, #28 ) ;
#73 = CARTESIAN_POINT ( 'NONE',  ( 1.514188661106529085E-30, 1.754000000000000448, 4.336808689942017736E-16 ) ) ;
#74 = PRODUCT ( '969436', '969436', '', ( #47 ) ) ;
#75 = ORIENTED_EDGE ( 'NONE', *, *, #45, .F. ) ;
#76 = EDGE_CURVE ( 'NONE', #55, #55, #22, .T. ) ;
#77 = CARTESIAN_POINT ( 'NONE',  ( 6.982962677686265448E-14, 4.399123034744251929E-31, 19.99999999999999645 ) ) ;
#78 = FACE_OUTER_BOUND ( 'NONE', #68, .T. ) ;
#79 = CARTESIAN_POINT ( 'NONE',  ( 1.955229549752154679E-13, 1.199999999999993072, 56.00000000000000000 ) ) ;
#80 = LOCAL_TIME ( 15, 2, 15.00000000000000000, #33 ) ;
#81 = EDGE_CURVE ( 'NONE', #99, #99, #227, .T. ) ;
#82 = DIRECTION ( 'NONE',  ( 0.0000000000000000000, 1.000000000000000000, 0.0000000000000000000 ) ) ;
#83 = DIRECTION ( 'NONE',  ( -3.491481338843133355E-15, 1.224646799147353207E-16, -1.000000000000000000 ) ) ;
#84 = APPROVAL_ROLE ( '' ) ;
#85 = LOCAL_TIME ( 15, 2, 15.00000000000000000, #90 ) ;
#86 = PERSON_AND_ORGANIZATION_ROLE ( 'creator' ) ;
#87 = APPROVAL_STATUS ( 'not_yet_approved' ) ;
#88 = CC_DESIGN_PERSON_AND_ORGANIZATION_ASSIGNMENT ( #241, #63, ( #50 ) ) ;
#89 = AXIS2_PLACEMENT_3D ( 'NONE', #220, #172, #31 ) ;
#90 = COORDINATED_UNIVERSAL_TIME_OFFSET ( 1, 0, .AHEAD. ) ;
#91 = EDGE_LOOP ( 'NONE', ( #51 ) ) ;
#92 = EDGE_CURVE ( 'NONE', #161, #161, #113, .T. ) ;
#93 = ORIENTED_EDGE ( 'NONE', *, *, #92, .T. ) ;
#94 = APPROVAL_DATE_TIME ( #16, #165 ) ;
#95 = AXIS2_PLACEMENT_3D ( 'NONE', #169, #148, #219 ) ;
#96 = CLOSED_SHELL ( 'NONE', ( #39, #187, #30, #190 ) ) ;
#97 = APPLICATION_CONTEXT ( 'configuration controlled 3d designs of mechanical parts and assemblies' ) ;
#98 = PERSON_AND_ORGANIZATION ( #40, #173 ) ;
#99 = VERTEX_POINT ( 'NONE', #79 ) ;
#100 = APPROVAL ( #155, 'UNSPECIFIED' ) ;
#101 = EDGE_LOOP ( 'NONE', ( #93 ) ) ;
#102 = APPROVAL_PERSON_ORGANIZATION ( #117, #165, #228 ) ;
#103 = UNCERTAINTY_MEASURE_WITH_UNIT (LENGTH_MEASURE( 1.000000000000000082E-05 ), #233, 'distance_accuracy_value', 'NONE');
#104 = DIRECTION ( 'NONE',  ( 0.0000000000000000000, 1.000000000000000000, 0.0000000000000000000 ) ) ;
#105 = DIRECTION ( 'NONE',  ( -3.491481338843133355E-15, 1.224646799147353207E-16, -1.000000000000000000 ) ) ;
#106 = DIRECTION ( 'NONE',  ( -3.491481338843133355E-15, 1.224646799147353207E-16, -1.000000000000000000 ) ) ;
#107 = FACE_BOUND ( 'NONE', #1, .T. ) ;
#108 = AXIS2_PLACEMENT_3D ( 'NONE', #127, #26, #104 ) ;
#109 = DIRECTION ( 'NONE',  ( 0.0000000000000000000, 1.000000000000000000, 0.0000000000000000000 ) ) ;
#110 = PERSON_AND_ORGANIZATION ( #40, #173 ) ;
#111 = CONICAL_SURFACE ( 'NONE', #95, 1.499999999999996003, 0.5235987755982925984 ) ;
#112 = PERSON_AND_ORGANIZATION ( #40, #173 ) ;
#113 = CIRCLE ( 'NONE', #72, 2.004000000000001336 ) ;
#114 = EDGE_LOOP ( 'NONE', ( #71 ) ) ;
#115 = CALENDAR_DATE ( 2021, 30, 11 ) ;
#116 = CALENDAR_DATE ( 2021, 30, 11 ) ;
#117 = PERSON_AND_ORGANIZATION ( #40, #173 ) ;
#118 = LOCAL_TIME ( 15, 2, 15.00000000000000000, #240 ) ;
#119 = CARTESIAN_POINT ( 'NONE',  ( 8.728703347107825500E-16, -3.061616997868380553E-17, 0.2499999999999997780 ) ) ;
#120 = DATE_TIME_ROLE ( 'classification_date' ) ;
#121 = ORIENTED_EDGE ( 'NONE', *, *, #92, .F. ) ;
#122 = CARTESIAN_POINT ( 'NONE',  ( 6.982962677686265448E-14, -2.449293598294706119E-15, 19.99999999999999645 ) ) ;
#123 = CIRCLE ( 'NONE', #177, 1.754000000000000448 ) ;
#124 = DIRECTION ( 'NONE',  ( -3.491481338843133355E-15, 1.224646799147353207E-16, -1.000000000000000000 ) ) ;
#125 = DIRECTION ( 'NONE',  ( 0.0000000000000000000, 1.000000000000000000, 0.0000000000000000000 ) ) ;
#126 = CARTESIAN_POINT ( 'NONE',  ( 1.955229549752154679E-13, -6.858022075225178552E-15, 56.00000000000000000 ) ) ;
#127 = CARTESIAN_POINT ( 'NONE',  ( 7.287752800543040914E-14, -2.556199582358179454E-15, 20.87295360701473257 ) ) ;
#128 = PERSON_AND_ORGANIZATION_ROLE ( 'design_owner' ) ;
#129 = PERSON_AND_ORGANIZATION ( #40, #173 ) ;
#130 = AXIS2_PLACEMENT_3D ( 'NONE', #236, #105, #183 ) ;
#131 = EDGE_CURVE ( 'NONE', #43, #43, #123, .T. ) ;
#132 =( NAMED_UNIT ( * ) PLANE_ANGLE_UNIT ( ) SI_UNIT ( $, .RADIAN. ) );
#133 = DATE_TIME_ROLE ( 'creation_date' ) ;
#134 = APPROVAL_ROLE ( '' ) ;
#135 = EDGE_LOOP ( 'NONE', ( #121 ) ) ;
#136 = CIRCLE ( 'NONE', #17, 2.003999999999997339 ) ;
#137 = EDGE_LOOP ( 'NONE', ( #224 ) ) ;
#138 = PERSON_AND_ORGANIZATION_ROLE ( 'classification_officer' ) ;
#139 = CARTESIAN_POINT ( 'NONE',  ( 1.944755105735625216E-13, 1.499999999999993117, 55.70000000000000284 ) ) ;
#140 = COORDINATED_UNIVERSAL_TIME_OFFSET ( 1, 0, .AHEAD. ) ;
#141 = DIRECTION ( 'NONE',  ( -4.275831445896958607E-31, -1.000000000000000000, -1.224646799147353207E-16 ) ) ;
#142 = ADVANCED_FACE ( 'NONE', ( #182 ), #57, .F. ) ;
#143 = FACE_OUTER_BOUND ( 'NONE', #15, .T. ) ;
#144 = CIRCLE ( 'NONE', #188, 1.499999999999999778 ) ;
#145 = DIRECTION ( 'NONE',  ( -4.275831445896958607E-31, -1.000000000000000000, -1.224646799147353207E-16 ) ) ;
#146 = CARTESIAN_POINT ( 'NONE',  ( 1.944755105735625216E-13, -6.821282671250756903E-15, 55.70000000000000284 ) ) ;
#147 = DIRECTION ( 'NONE',  ( 0.0000000000000000000, 1.000000000000000000, 0.0000000000000000000 ) ) ;
#148 = DIRECTION ( 'NONE',  ( -3.491481338843133355E-15, 1.224646799147353207E-16, -1.000000000000000000 ) ) ;
#149 = CC_DESIGN_PERSON_AND_ORGANIZATION_ASSIGNMENT ( #239, #128, ( #74 ) ) ;
#150 = CONICAL_SURFACE ( 'NONE', #194, 1.200000000000000178, 0.7853981633974450594 ) ;
#151 = MANIFOLD_SOLID_BREP ( 'Corps-Déplacer/Copier1[1]', #208 ) ;
#152 = COORDINATED_UNIVERSAL_TIME_OFFSET ( 1, 0, .AHEAD. ) ;
#153 = APPLICATION_PROTOCOL_DEFINITION ( 'international standard', 'config_control_design', 1994, #97 ) ;
#154 = CC_DESIGN_APPROVAL ( #100, ( #50 ) ) ;
#155 = APPROVAL_STATUS ( 'not_yet_approved' ) ;
#156 = CALENDAR_DATE ( 2021, 30, 11 ) ;
#157 = DATE_AND_TIME ( #156, #35 ) ;
#158 = EDGE_CURVE ( 'NONE', #37, #37, #243, .T. ) ;
#159 = DESIGN_CONTEXT ( 'detailed design', #97, 'design' ) ;
#160 = EDGE_LOOP ( 'NONE', ( #32 ) ) ;
#161 = VERTEX_POINT ( 'NONE', #198 ) ;
#162 = EDGE_LOOP ( 'NONE', ( #191 ) ) ;
#163 = DIRECTION ( 'NONE',  ( 4.275831445896959482E-31, 1.000000000000000000, 1.224646799147353207E-16 ) ) ;
#164 = FACE_OUTER_BOUND ( 'NONE', #101, .T. ) ;
#165 = APPROVAL ( #70, 'UNSPECIFIED' ) ;
#166 = DIRECTION ( 'NONE',  ( -3.491481338843133355E-15, 1.224646799147353207E-16, -1.000000000000000000 ) ) ;
#167 = AXIS2_PLACEMENT_3D ( 'NONE', #42, #58, #61 ) ;
#168 = PLANE ( 'NONE',  #235 ) ;
#169 = CARTESIAN_POINT ( 'NONE',  ( 7.287752800543040914E-14, -2.556199582358179454E-15, 20.87295360701473257 ) ) ;
#170 = CARTESIAN_POINT ( 'NONE',  ( 6.982962677686265448E-14, -2.449293598294706119E-15, 19.99999999999999645 ) ) ;
#171 = EDGE_CURVE ( 'NONE', #59, #59, #136, .T. ) ;
#172 = DIRECTION ( 'NONE',  ( 0.0000000000000000000, 0.0000000000000000000, 1.000000000000000000 ) ) ;
#173 = ORGANIZATION ( 'UNSPECIFIED', 'UNSPECIFIED', '' ) ;
#174 = APPROVAL_DATE_TIME ( #223, #178 ) ;
#175 = PERSON_AND_ORGANIZATION_ROLE ( 'creator' ) ;
#176 = DATE_AND_TIME ( #49, #85 ) ;
#177 = AXIS2_PLACEMENT_3D ( 'NONE', #231, #41, #23 ) ;
#178 = APPROVAL ( #87, 'UNSPECIFIED' ) ;
#179 = EDGE_LOOP ( 'NONE', ( #196 ) ) ;
#180 = LOCAL_TIME ( 15, 2, 15.00000000000000000, #152 ) ;
#181 = FACE_OUTER_BOUND ( 'NONE', #226, .T. ) ;
#182 = FACE_OUTER_BOUND ( 'NONE', #162, .T. ) ;
#183 = DIRECTION ( 'NONE',  ( 4.275831445896958607E-31, 1.000000000000000000, 1.224646799147353207E-16 ) ) ;
#184 = FACE_OUTER_BOUND ( 'NONE', #91, .T. ) ;
#185 = CC_DESIGN_APPROVAL ( #165, ( #69 ) ) ;
#186 = CARTESIAN_POINT ( 'NONE',  ( 6.982962677686265448E-14, 4.399123034744251929E-31, 19.99999999999999645 ) ) ;
#187 = ADVANCED_FACE ( 'NONE', ( #2, #184 ), #56, .T. ) ;
#188 = AXIS2_PLACEMENT_3D ( 'NONE', #146, #217, #125 ) ;
#189 = APPLICATION_PROTOCOL_DEFINITION ( 'international standard', 'config_control_design', 1994, #64 ) ;
#190 = ADVANCED_FACE ( 'NONE', ( #197 ), #168, .T. ) ;
#191 = ORIENTED_EDGE ( 'NONE', *, *, #158, .T. ) ;
#192 = APPROVAL_DATE_TIME ( #176, #100 ) ;
#193 = EDGE_LOOP ( 'NONE', ( #14 ) ) ;
#194 = AXIS2_PLACEMENT_3D ( 'NONE', #126, #10, #82 ) ;
#195 = DIRECTION ( 'NONE',  ( 3.491481338843133355E-15, -1.224646799147353207E-16, 1.000000000000000000 ) ) ;
#196 = ORIENTED_EDGE ( 'NONE', *, *, #81, .T. ) ;
#197 = FACE_OUTER_BOUND ( 'NONE', #135, .T. ) ;
#198 = CARTESIAN_POINT ( 'NONE',  ( 6.982962677686265448E-14, 2.003999999999998671, 19.99999999999999645 ) ) ;
#199 = DIRECTION ( 'NONE',  ( 4.275831445896958607E-31, 1.000000000000000000, 1.224646799147353454E-16 ) ) ;
#200 = CARTESIAN_POINT ( 'NONE',  ( 6.982962677686265448E-14, 2.003999999999998671, 19.99999999999999645 ) ) ;
#201 = FACE_OUTER_BOUND ( 'NONE', #209, .T. ) ;
#202 = DIRECTION ( 'NONE',  ( -3.491481338843133355E-15, 1.224646799147353207E-16, -1.000000000000000000 ) ) ;
#203 = AXIS2_PLACEMENT_3D ( 'NONE', #210, #218, #109 ) ;
#204 = CALENDAR_DATE ( 2021, 30, 11 ) ;
#205 = PERSON_AND_ORGANIZATION ( #40, #173 ) ;
#206 = CC_DESIGN_PERSON_AND_ORGANIZATION_ASSIGNMENT ( #129, #175, ( #242 ) ) ;
#207 =( GEOMETRIC_REPRESENTATION_CONTEXT ( 3 ) GLOBAL_UNCERTAINTY_ASSIGNED_CONTEXT ( ( #103 ) ) GLOBAL_UNIT_ASSIGNED_CONTEXT ( ( #233, #132, #65 ) ) REPRESENTATION_CONTEXT ( 'NONE', 'WORKASPACE' ) );
#208 = CLOSED_SHELL ( 'NONE', ( #142, #54, #221, #48, #34 ) ) ;
#209 = EDGE_LOOP ( 'NONE', ( #229 ) ) ;
#210 = CARTESIAN_POINT ( 'NONE',  ( 1.955229549752154679E-13, -6.858022075225178552E-15, 56.00000000000000000 ) ) ;
#211 = ORIENTED_EDGE ( 'NONE', *, *, #76, .T. ) ;
#212 = CC_DESIGN_PERSON_AND_ORGANIZATION_ASSIGNMENT ( #98, #138, ( #69 ) ) ;
#213 = VERTEX_POINT ( 'NONE', #139 ) ;
#214 = CARTESIAN_POINT ( 'NONE',  ( 7.287752800543040914E-14, 1.499999999999993339, 20.87295360701473257 ) ) ;
#215 = FACE_BOUND ( 'NONE', #179, .T. ) ;
#216 = FACE_OUTER_BOUND ( 'NONE', #137, .T. ) ;
#217 = DIRECTION ( 'NONE',  ( -3.491481338843133355E-15, 1.224646799147353207E-16, -1.000000000000000000 ) ) ;
#218 = DIRECTION ( 'NONE',  ( -3.491481338843133355E-15, 1.224646799147353207E-16, -1.000000000000000000 ) ) ;
#219 = DIRECTION ( 'NONE',  ( 0.0000000000000000000, 1.000000000000000000, 0.0000000000000000000 ) ) ;
#220 = CARTESIAN_POINT ( 'NONE',  ( 0.0000000000000000000, 0.0000000000000000000, 0.0000000000000000000 ) ) ;
#221 = ADVANCED_FACE ( 'NONE', ( #216, #20 ), #237, .T. ) ;
#222 = AXIS2_PLACEMENT_3D ( 'NONE', #119, #8, #3 ) ;
#223 = DATE_AND_TIME ( #204, #180 ) ;
#224 = ORIENTED_EDGE ( 'NONE', *, *, #76, .F. ) ;
#225 = DATE_AND_TIME ( #115, #118 ) ;
#226 = EDGE_LOOP ( 'NONE', ( #21 ) ) ;
#227 = CIRCLE ( 'NONE', #203, 1.200000000000000178 ) ;
#228 = APPROVAL_ROLE ( '' ) ;
#229 = ORIENTED_EDGE ( 'NONE', *, *, #81, .F. ) ;
#230 = PRODUCT_DEFINITION_SHAPE ( 'NONE', 'NONE',  #242 ) ;
#231 = CARTESIAN_POINT ( 'NONE',  ( 7.642078254962024380E-31, -2.680480221863019420E-32, 2.188778204237559790E-16 ) ) ;
#232 = CYLINDRICAL_SURFACE ( 'NONE', #18, 2.003999999999999559 ) ;
#233 =( LENGTH_UNIT ( ) NAMED_UNIT ( * ) SI_UNIT ( .MILLI., .METRE. ) );
#234 = CC_DESIGN_DATE_AND_TIME_ASSIGNMENT ( #157, #120, ( #69 ) ) ;
#235 = AXIS2_PLACEMENT_3D ( 'NONE', #77, #195, #145 ) ;
#236 = CARTESIAN_POINT ( 'NONE',  ( 1.955229549752154679E-13, 8.998558695971043013E-33, 56.00000000000000000 ) ) ;
#237 = CYLINDRICAL_SURFACE ( 'NONE', #44, 1.499999999999997780 ) ;
#238 = CC_DESIGN_DATE_AND_TIME_ASSIGNMENT ( #225, #133, ( #242 ) ) ;
#239 = PERSON_AND_ORGANIZATION ( #40, #173 ) ;
#240 = COORDINATED_UNIVERSAL_TIME_OFFSET ( 1, 0, .AHEAD. ) ;
#241 = PERSON_AND_ORGANIZATION ( #40, #173 ) ;
#242 = PRODUCT_DEFINITION ( 'UNKNOWN', '', #50, #159 ) ;
#243 = CIRCLE ( 'NONE', #38, 2.004000000000001336 ) ;
ENDSEC;
END-ISO-10303-21;
