ISO-10303-21;
HEADER;
FILE_DESCRIPTION (( 'STEP AP203' ),
    '1' );
FILE_NAME ('969435.step',
    '2021-11-30T14:02:14',
    ( '' ),
    ( '' ),
    'SwSTEP 2.0',
    'SolidWorks 2019',
    '' );
FILE_SCHEMA (( 'CONFIG_CONTROL_DESIGN' ));
ENDSEC;

DATA;
#1 = EDGE_CURVE ( 'NONE', #192, #192, #44, .T. ) ;
#2 = PERSON_AND_ORGANIZATION ( #156, #191 ) ;
#3 = AXIS2_PLACEMENT_3D ( 'NONE', #132, #32, #135 ) ;
#4 = EDGE_LOOP ( 'NONE', ( #59 ) ) ;
#5 = ORIENTED_EDGE ( 'NONE', *, *, #1, .F. ) ;
#6 =( NAMED_UNIT ( * ) PLANE_ANGLE_UNIT ( ) SI_UNIT ( $, .RADIAN. ) );
#7 = APPROVAL ( #177, 'UNSPECIFIED' ) ;
#8 = VERTEX_POINT ( 'NONE', #10 ) ;
#9 = EDGE_LOOP ( 'NONE', ( #27 ) ) ;
#10 = CARTESIAN_POINT ( 'NONE',  ( 3.785471652766322275E-31, 1.729000000000000536, 1.084202172485504434E-16 ) ) ;
#11 = ADVANCED_FACE ( 'NONE', ( #33, #147 ), #74, .T. ) ;
#12 = PERSON_AND_ORGANIZATION ( #156, #191 ) ;
#13 =( LENGTH_UNIT ( ) NAMED_UNIT ( * ) SI_UNIT ( .MILLI., .METRE. ) );
#14 = LOCAL_TIME ( 15, 2, 14.00000000000000000, #22 ) ;
#15 = DIRECTION ( 'NONE',  ( 4.275831445896958607E-31, 1.000000000000000000, 1.224646799147353207E-16 ) ) ;
#16 = DATE_AND_TIME ( #126, #157 ) ;
#17 = DIRECTION ( 'NONE',  ( 0.0000000000000000000, 1.000000000000000000, 0.0000000000000000000 ) ) ;
#18 = ADVANCED_FACE ( 'NONE', ( #165 ), #183, .F. ) ;
#19 = ADVANCED_BREP_SHAPE_REPRESENTATION ( '969435', ( #54, #210, #227 ), #129 ) ;
#20 = FACE_BOUND ( 'NONE', #98, .T. ) ;
#21 = PRODUCT_RELATED_PRODUCT_CATEGORY ( 'detail', '', ( #145 ) ) ;
#22 = COORDINATED_UNIVERSAL_TIME_OFFSET ( 1, 0, .AHEAD. ) ;
#23 = DATE_AND_TIME ( #166, #175 ) ;
#24 = FACE_OUTER_BOUND ( 'NONE', #63, .T. ) ;
#25 = APPROVAL_PERSON_ORGANIZATION ( #12, #213, #137 ) ;
#26 = VERTEX_POINT ( 'NONE', #45 ) ;
#27 = ORIENTED_EDGE ( 'NONE', *, *, #56, .T. ) ;
#28 = CARTESIAN_POINT ( 'NONE',  ( 7.272634242861654023E-14, 1.499999999999993339, 20.82965233682551087 ) ) ;
#29 = PRODUCT_DEFINITION_FORMATION_WITH_SPECIFIED_SOURCE ( 'ANY', '', #145, .NOT_KNOWN. ) ;
#30 = CC_DESIGN_DATE_AND_TIME_ASSIGNMENT ( #40, #143, ( #178 ) ) ;
#31 = AXIS2_PLACEMENT_3D ( 'NONE', #119, #47, #184 ) ;
#32 = DIRECTION ( 'NONE',  ( -3.491481338843133355E-15, 1.224646799147353207E-16, -1.000000000000000000 ) ) ;
#33 = FACE_OUTER_BOUND ( 'NONE', #162, .T. ) ;
#34 = DIRECTION ( 'NONE',  ( -4.275831445896958607E-31, -1.000000000000000000, -1.224646799147353207E-16 ) ) ;
#35 = PLANE ( 'NONE',  #31 ) ;
#36 = CC_DESIGN_PERSON_AND_ORGANIZATION_ASSIGNMENT ( #153, #95, ( #145 ) ) ;
#37 = AXIS2_PLACEMENT_3D ( 'NONE', #199, #89, #15 ) ;
#38 = PERSON_AND_ORGANIZATION ( #156, #191 ) ;
#39 = DIRECTION ( 'NONE',  ( 0.0000000000000000000, 1.000000000000000000, 0.0000000000000000000 ) ) ;
#40 = DATE_AND_TIME ( #50, #85 ) ;
#41 = AXIS2_PLACEMENT_3D ( 'NONE', #234, #62, #176 ) ;
#42 = DIRECTION ( 'NONE',  ( 0.0000000000000000000, 0.0000000000000000000, 1.000000000000000000 ) ) ;
#43 = VERTEX_POINT ( 'NONE', #155 ) ;
#44 = CIRCLE ( 'NONE', #65, 1.499999999999999778 ) ;
#45 = CARTESIAN_POINT ( 'NONE',  ( 6.982962677686266711E-14, 1.978999999999998094, 20.00000000000000000 ) ) ;
#46 = ADVANCED_FACE ( 'NONE', ( #87, #53 ), #220, .T. ) ;
#47 = DIRECTION ( 'NONE',  ( 3.491481338843133355E-15, -1.224646799147353207E-16, 1.000000000000000000 ) ) ;
#48 = PLANE ( 'NONE',  #169 ) ;
#49 = CIRCLE ( 'NONE', #91, 1.979000000000000759 ) ;
#50 = CALENDAR_DATE ( 2021, 30, 11 ) ;
#51 = PRODUCT_DEFINITION ( 'UNKNOWN', '', #29, #146 ) ;
#52 = DIRECTION ( 'NONE',  ( 3.491481338843133355E-15, -1.224646799147353207E-16, 1.000000000000000000 ) ) ;
#53 = FACE_OUTER_BOUND ( 'NONE', #211, .T. ) ;
#54 = MANIFOLD_SOLID_BREP ( 'Corps-Déplacer/Copier1[1]', #114 ) ;
#55 = DIRECTION ( 'NONE',  ( -3.491481338843133355E-15, 1.224646799147353207E-16, -1.000000000000000000 ) ) ;
#56 = EDGE_CURVE ( 'NONE', #8, #8, #57, .T. ) ;
#57 = CIRCLE ( 'NONE', #37, 1.729000000000000536 ) ;
#58 = ADVANCED_FACE ( 'NONE', ( #200 ), #48, .F. ) ;
#59 = ORIENTED_EDGE ( 'NONE', *, *, #133, .F. ) ;
#60 = ORIENTED_EDGE ( 'NONE', *, *, #138, .T. ) ;
#61 = CARTESIAN_POINT ( 'NONE',  ( 6.982962677686266711E-14, 1.484012304943905032E-32, 20.00000000000000000 ) ) ;
#62 = DIRECTION ( 'NONE',  ( -3.491481338843133355E-15, 1.224646799147353207E-16, -1.000000000000000000 ) ) ;
#63 = EDGE_LOOP ( 'NONE', ( #78 ) ) ;
#64 = CARTESIAN_POINT ( 'NONE',  ( 0.0000000000000000000, 0.0000000000000000000, 0.0000000000000000000 ) ) ;
#65 = AXIS2_PLACEMENT_3D ( 'NONE', #83, #71, #17 ) ;
#66 = CC_DESIGN_PERSON_AND_ORGANIZATION_ASSIGNMENT ( #112, #193, ( #51 ) ) ;
#67 = FACE_OUTER_BOUND ( 'NONE', #170, .T. ) ;
#68 = DATE_AND_TIME ( #239, #14 ) ;
#69 = CARTESIAN_POINT ( 'NONE',  ( 1.955229549752154679E-13, -6.858022075225178552E-15, 56.00000000000000000 ) ) ;
#70 = COORDINATED_UNIVERSAL_TIME_OFFSET ( 1, 0, .AHEAD. ) ;
#71 = DIRECTION ( 'NONE',  ( -3.491481338843133355E-15, 1.224646799147353207E-16, -1.000000000000000000 ) ) ;
#72 = AXIS2_PLACEMENT_3D ( 'NONE', #69, #226, #149 ) ;
#73 = DIRECTION ( 'NONE',  ( -3.491481338843133355E-15, 1.224646799147353207E-16, -1.000000000000000000 ) ) ;
#74 = CONICAL_SURFACE ( 'NONE', #216, 1.499999999999996003, 0.5235987755982928205 ) ;
#75 = ORIENTED_EDGE ( 'NONE', *, *, #217, .F. ) ;
#76 = COORDINATED_UNIVERSAL_TIME_OFFSET ( 1, 0, .AHEAD. ) ;
#77 = CIRCLE ( 'NONE', #72, 1.200000000000000178 ) ;
#78 = ORIENTED_EDGE ( 'NONE', *, *, #180, .F. ) ;
#79 = MECHANICAL_CONTEXT ( 'NONE', #100, 'mechanical' ) ;
#80 = CC_DESIGN_PERSON_AND_ORGANIZATION_ASSIGNMENT ( #2, #102, ( #29 ) ) ;
#81 = LOCAL_TIME ( 15, 2, 14.00000000000000000, #76 ) ;
#82 = DIRECTION ( 'NONE',  ( -4.275831445896958607E-31, -1.000000000000000000, -1.224646799147353207E-16 ) ) ;
#83 = CARTESIAN_POINT ( 'NONE',  ( 1.944755105735625216E-13, -6.821282671250756903E-15, 55.70000000000000284 ) ) ;
#84 = APPROVAL ( #219, 'UNSPECIFIED' ) ;
#85 = LOCAL_TIME ( 15, 2, 14.00000000000000000, #203 ) ;
#86 = AXIS2_PLACEMENT_3D ( 'NONE', #125, #123, #179 ) ;
#87 = FACE_OUTER_BOUND ( 'NONE', #235, .T. ) ;
#88 = DIRECTION ( 'NONE',  ( 0.0000000000000000000, 1.000000000000000000, 0.0000000000000000000 ) ) ;
#89 = DIRECTION ( 'NONE',  ( -3.491481338843133355E-15, 1.224646799147353207E-16, -1.000000000000000000 ) ) ;
#90 = ADVANCED_FACE ( 'NONE', ( #20, #160 ), #242, .T. ) ;
#91 = AXIS2_PLACEMENT_3D ( 'NONE', #187, #73, #39 ) ;
#92 = CARTESIAN_POINT ( 'NONE',  ( 7.272634242861654023E-14, -2.550896706164555021E-15, 20.82965233682551087 ) ) ;
#93 = UNCERTAINTY_MEASURE_WITH_UNIT (LENGTH_MEASURE( 1.000000000000000082E-05 ), #13, 'distance_accuracy_value', 'NONE');
#94 = APPROVAL_ROLE ( '' ) ;
#95 = PERSON_AND_ORGANIZATION_ROLE ( 'design_owner' ) ;
#96 = APPLICATION_PROTOCOL_DEFINITION ( 'international standard', 'config_control_design', 1994, #100 ) ;
#97 = ADVANCED_FACE ( 'NONE', ( #67, #164 ), #228, .T. ) ;
#98 = EDGE_LOOP ( 'NONE', ( #188 ) ) ;
#99 = VERTEX_POINT ( 'NONE', #212 ) ;
#100 = APPLICATION_CONTEXT ( 'configuration controlled 3d designs of mechanical parts and assemblies' ) ;
#101 = AXIS2_PLACEMENT_3D ( 'NONE', #122, #198, #88 ) ;
#102 = PERSON_AND_ORGANIZATION_ROLE ( 'creator' ) ;
#103 = CARTESIAN_POINT ( 'NONE',  ( 7.272634242861654023E-14, -2.550896706164555021E-15, 20.82965233682551087 ) ) ;
#104 = DIRECTION ( 'NONE',  ( 3.491481338843133355E-15, -1.224646799147353207E-16, 1.000000000000000000 ) ) ;
#105 = DIRECTION ( 'NONE',  ( 4.275831445896958607E-31, 1.000000000000000000, 1.224646799147353207E-16 ) ) ;
#106 = CIRCLE ( 'NONE', #41, 1.978999999999997650 ) ;
#107 = FACE_OUTER_BOUND ( 'NONE', #9, .T. ) ;
#108 = ADVANCED_FACE ( 'NONE', ( #107 ), #35, .F. ) ;
#109 = COORDINATED_UNIVERSAL_TIME_OFFSET ( 1, 0, .AHEAD. ) ;
#110 = CC_DESIGN_SECURITY_CLASSIFICATION ( #178, ( #29 ) ) ;
#111 = CC_DESIGN_PERSON_AND_ORGANIZATION_ASSIGNMENT ( #195, #222, ( #178 ) ) ;
#112 = PERSON_AND_ORGANIZATION ( #156, #191 ) ;
#113 = CIRCLE ( 'NONE', #3, 1.979000000000000759 ) ;
#114 = CLOSED_SHELL ( 'NONE', ( #58, #11, #46, #97, #18 ) ) ;
#115 = VERTEX_POINT ( 'NONE', #209 ) ;
#116 = DIRECTION ( 'NONE',  ( -3.491481338843133355E-15, 1.224646799147353207E-16, -1.000000000000000000 ) ) ;
#117 = SECURITY_CLASSIFICATION_LEVEL ( 'unclassified' ) ;
#118 = CARTESIAN_POINT ( 'NONE',  ( 6.982962677686266711E-14, 1.484012304943905032E-32, 20.00000000000000000 ) ) ;
#119 = CARTESIAN_POINT ( 'NONE',  ( -1.803720458594760532E-31, 6.326599720296865935E-33, -5.166060716201349980E-17 ) ) ;
#120 = SHAPE_DEFINITION_REPRESENTATION ( #238, #19 ) ;
#121 = DIRECTION ( 'NONE',  ( 0.0000000000000000000, 1.000000000000000000, 0.0000000000000000000 ) ) ;
#122 = CARTESIAN_POINT ( 'NONE',  ( 1.955229549752154679E-13, -6.858022075225178552E-15, 56.00000000000000000 ) ) ;
#123 = DIRECTION ( 'NONE',  ( -3.491481338843133355E-15, 1.224646799147353207E-16, -1.000000000000000000 ) ) ;
#124 = CIRCLE ( 'NONE', #144, 1.499999999999996003 ) ;
#125 = CARTESIAN_POINT ( 'NONE',  ( 0.0000000000000000000, 0.0000000000000000000, 0.0000000000000000000 ) ) ;
#126 = CALENDAR_DATE ( 2021, 30, 11 ) ;
#127 = PERSON_AND_ORGANIZATION_ROLE ( 'design_supplier' ) ;
#128 = ADVANCED_FACE ( 'NONE', ( #196, #243 ), #141, .T. ) ;
#129 =( GEOMETRIC_REPRESENTATION_CONTEXT ( 3 ) GLOBAL_UNCERTAINTY_ASSIGNED_CONTEXT ( ( #93 ) ) GLOBAL_UNIT_ASSIGNED_CONTEXT ( ( #13, #6, #190 ) ) REPRESENTATION_CONTEXT ( 'NONE', 'WORKASPACE' ) );
#130 = AXIS2_PLACEMENT_3D ( 'NONE', #142, #52, #158 ) ;
#131 = ORIENTED_EDGE ( 'NONE', *, *, #159, .F. ) ;
#132 = CARTESIAN_POINT ( 'NONE',  ( 6.982962677686266711E-14, -2.449293598294706513E-15, 20.00000000000000000 ) ) ;
#133 = EDGE_CURVE ( 'NONE', #115, #115, #77, .T. ) ;
#134 = CC_DESIGN_APPROVAL ( #213, ( #51 ) ) ;
#135 = DIRECTION ( 'NONE',  ( 0.0000000000000000000, 1.000000000000000000, 0.0000000000000000000 ) ) ;
#136 = EDGE_LOOP ( 'NONE', ( #151 ) ) ;
#137 = APPROVAL_ROLE ( '' ) ;
#138 = EDGE_CURVE ( 'NONE', #173, #173, #124, .T. ) ;
#139 = APPLICATION_CONTEXT ( 'configuration controlled 3d designs of mechanical parts and assemblies' ) ;
#140 = AXIS2_PLACEMENT_3D ( 'NONE', #241, #223, #105 ) ;
#141 = CYLINDRICAL_SURFACE ( 'NONE', #240, 1.978999999999998982 ) ;
#142 = CARTESIAN_POINT ( 'NONE',  ( 8.728703347107825500E-16, -3.061616997868380553E-17, 0.2499999999999997780 ) ) ;
#143 = DATE_TIME_ROLE ( 'classification_date' ) ;
#144 = AXIS2_PLACEMENT_3D ( 'NONE', #92, #229, #206 ) ;
#145 = PRODUCT ( '969435', '969435', '', ( #79 ) ) ;
#146 = DESIGN_CONTEXT ( 'detailed design', #139, 'design' ) ;
#147 = FACE_BOUND ( 'NONE', #231, .T. ) ;
#148 = APPROVAL_PERSON_ORGANIZATION ( #161, #84, #94 ) ;
#149 = DIRECTION ( 'NONE',  ( 0.0000000000000000000, 1.000000000000000000, 0.0000000000000000000 ) ) ;
#150 = ORIENTED_EDGE ( 'NONE', *, *, #138, .F. ) ;
#151 = ORIENTED_EDGE ( 'NONE', *, *, #159, .T. ) ;
#152 = DATE_AND_TIME ( #214, #81 ) ;
#153 = PERSON_AND_ORGANIZATION ( #156, #191 ) ;
#154 = EDGE_LOOP ( 'NONE', ( #189 ) ) ;
#155 = CARTESIAN_POINT ( 'NONE',  ( 8.728703347107833388E-16, 1.978999999999997650, 0.2500000000000000000 ) ) ;
#156 = PERSON ( 'UNSPECIFIED', 'UNSPECIFIED', 'UNSPECIFIED', ('UNSPECIFIED'), ('UNSPECIFIED'), ('UNSPECIFIED') ) ;
#157 = LOCAL_TIME ( 15, 2, 14.00000000000000000, #109 ) ;
#158 = DIRECTION ( 'NONE',  ( -3.892733591485069472E-31, -1.000000000000000000, -1.095707097004048217E-16 ) ) ;
#159 = EDGE_CURVE ( 'NONE', #99, #99, #49, .T. ) ;
#160 = FACE_OUTER_BOUND ( 'NONE', #230, .T. ) ;
#161 = PERSON_AND_ORGANIZATION ( #156, #191 ) ;
#162 = EDGE_LOOP ( 'NONE', ( #131 ) ) ;
#163 = CC_DESIGN_APPROVAL ( #7, ( #29 ) ) ;
#164 = FACE_BOUND ( 'NONE', #154, .T. ) ;
#165 = FACE_OUTER_BOUND ( 'NONE', #4, .T. ) ;
#166 = CALENDAR_DATE ( 2021, 30, 11 ) ;
#167 = PLANE ( 'NONE',  #185 ) ;
#168 = CC_DESIGN_DATE_AND_TIME_ASSIGNMENT ( #23, #225, ( #51 ) ) ;
#169 = AXIS2_PLACEMENT_3D ( 'NONE', #118, #104, #82 ) ;
#170 = EDGE_LOOP ( 'NONE', ( #5 ) ) ;
#171 = APPROVAL_STATUS ( 'not_yet_approved' ) ;
#172 = ORIENTED_EDGE ( 'NONE', *, *, #180, .T. ) ;
#173 = VERTEX_POINT ( 'NONE', #28 ) ;
#174 = ADVANCED_FACE ( 'NONE', ( #24 ), #167, .T. ) ;
#175 = LOCAL_TIME ( 15, 2, 14.00000000000000000, #70 ) ;
#176 = DIRECTION ( 'NONE',  ( 3.892733591485069472E-31, 1.000000000000000000, 1.095707097004048217E-16 ) ) ;
#177 = APPROVAL_STATUS ( 'not_yet_approved' ) ;
#178 = SECURITY_CLASSIFICATION ( '', '', #117 ) ;
#179 = DIRECTION ( 'NONE',  ( 4.275831445896959482E-31, 1.000000000000000000, 1.224646799147353207E-16 ) ) ;
#180 = EDGE_CURVE ( 'NONE', #26, #26, #113, .T. ) ;
#181 = ORIENTED_EDGE ( 'NONE', *, *, #1, .T. ) ;
#182 = ORIENTED_EDGE ( 'NONE', *, *, #217, .T. ) ;
#183 = PLANE ( 'NONE',  #140 ) ;
#184 = DIRECTION ( 'NONE',  ( -4.275831445896958607E-31, -1.000000000000000000, -1.224646799147353207E-16 ) ) ;
#185 = AXIS2_PLACEMENT_3D ( 'NONE', #61, #208, #34 ) ;
#186 = APPROVAL_DATE_TIME ( #16, #84 ) ;
#187 = CARTESIAN_POINT ( 'NONE',  ( 6.982962677686266711E-14, -2.449293598294706513E-15, 20.00000000000000000 ) ) ;
#188 = ORIENTED_EDGE ( 'NONE', *, *, #56, .F. ) ;
#189 = ORIENTED_EDGE ( 'NONE', *, *, #133, .T. ) ;
#190 =( NAMED_UNIT ( * ) SI_UNIT ( $, .STERADIAN. ) SOLID_ANGLE_UNIT ( ) );
#191 = ORGANIZATION ( 'UNSPECIFIED', 'UNSPECIFIED', '' ) ;
#192 = VERTEX_POINT ( 'NONE', #237 ) ;
#193 = PERSON_AND_ORGANIZATION_ROLE ( 'creator' ) ;
#194 = DIRECTION ( 'NONE',  ( 4.275831445896958607E-31, 1.000000000000000000, 1.224646799147352961E-16 ) ) ;
#195 = PERSON_AND_ORGANIZATION ( #156, #191 ) ;
#196 = FACE_OUTER_BOUND ( 'NONE', #221, .T. ) ;
#197 = PERSON_AND_ORGANIZATION ( #156, #191 ) ;
#198 = DIRECTION ( 'NONE',  ( -3.491481338843133355E-15, 1.224646799147353207E-16, -1.000000000000000000 ) ) ;
#199 = CARTESIAN_POINT ( 'NONE',  ( -3.607440917189521063E-31, 1.265319944059373187E-32, -1.033212143240269996E-16 ) ) ;
#200 = FACE_OUTER_BOUND ( 'NONE', #136, .T. ) ;
#201 = APPROVAL_DATE_TIME ( #68, #7 ) ;
#202 = CC_DESIGN_PERSON_AND_ORGANIZATION_ASSIGNMENT ( #38, #127, ( #29 ) ) ;
#203 = COORDINATED_UNIVERSAL_TIME_OFFSET ( 1, 0, .AHEAD. ) ;
#204 = CC_DESIGN_APPROVAL ( #84, ( #178 ) ) ;
#205 = CLOSED_SHELL ( 'NONE', ( #108, #90, #128, #174 ) ) ;
#206 = DIRECTION ( 'NONE',  ( 0.0000000000000000000, 1.000000000000000000, 0.0000000000000000000 ) ) ;
#207 = EDGE_LOOP ( 'NONE', ( #172 ) ) ;
#208 = DIRECTION ( 'NONE',  ( 3.491481338843133355E-15, -1.224646799147353207E-16, 1.000000000000000000 ) ) ;
#209 = CARTESIAN_POINT ( 'NONE',  ( 1.955229549752154679E-13, 1.199999999999993072, 56.00000000000000000 ) ) ;
#210 = MANIFOLD_SOLID_BREP ( 'Corps-Déplacer/Copier1[2]', #205 ) ;
#211 = EDGE_LOOP ( 'NONE', ( #181 ) ) ;
#212 = CARTESIAN_POINT ( 'NONE',  ( 6.982962677686266711E-14, 1.978999999999998094, 20.00000000000000000 ) ) ;
#213 = APPROVAL ( #171, 'UNSPECIFIED' ) ;
#214 = CALENDAR_DATE ( 2021, 30, 11 ) ;
#215 = DIRECTION ( 'NONE',  ( 1.000000000000000000, 0.0000000000000000000, 0.0000000000000000000 ) ) ;
#216 = AXIS2_PLACEMENT_3D ( 'NONE', #103, #55, #121 ) ;
#217 = EDGE_CURVE ( 'NONE', #43, #43, #106, .T. ) ;
#218 = CARTESIAN_POINT ( 'NONE',  ( 0.0000000000000000000, 0.0000000000000000000, 0.0000000000000000000 ) ) ;
#219 = APPROVAL_STATUS ( 'not_yet_approved' ) ;
#220 = CYLINDRICAL_SURFACE ( 'NONE', #86, 1.499999999999997780 ) ;
#221 = EDGE_LOOP ( 'NONE', ( #75 ) ) ;
#222 = PERSON_AND_ORGANIZATION_ROLE ( 'classification_officer' ) ;
#223 = DIRECTION ( 'NONE',  ( -3.491481338843133355E-15, 1.224646799147353207E-16, -1.000000000000000000 ) ) ;
#224 = APPROVAL_ROLE ( '' ) ;
#225 = DATE_TIME_ROLE ( 'creation_date' ) ;
#226 = DIRECTION ( 'NONE',  ( -3.491481338843133355E-15, 1.224646799147353207E-16, -1.000000000000000000 ) ) ;
#227 = AXIS2_PLACEMENT_3D ( 'NONE', #64, #42, #215 ) ;
#228 = CONICAL_SURFACE ( 'NONE', #101, 1.200000000000000178, 0.7853981633974450594 ) ;
#229 = DIRECTION ( 'NONE',  ( -3.491481338843133355E-15, 1.224646799147353207E-16, -1.000000000000000000 ) ) ;
#230 = EDGE_LOOP ( 'NONE', ( #182 ) ) ;
#231 = EDGE_LOOP ( 'NONE', ( #60 ) ) ;
#232 = APPROVAL_DATE_TIME ( #152, #213 ) ;
#233 = APPROVAL_PERSON_ORGANIZATION ( #197, #7, #224 ) ;
#234 = CARTESIAN_POINT ( 'NONE',  ( 8.728703347107825500E-16, -3.061616997868380553E-17, 0.2499999999999997780 ) ) ;
#235 = EDGE_LOOP ( 'NONE', ( #150 ) ) ;
#236 = APPLICATION_PROTOCOL_DEFINITION ( 'international standard', 'config_control_design', 1994, #139 ) ;
#237 = CARTESIAN_POINT ( 'NONE',  ( 1.944755105735625216E-13, 1.499999999999993117, 55.70000000000000284 ) ) ;
#238 = PRODUCT_DEFINITION_SHAPE ( 'NONE', 'NONE',  #51 ) ;
#239 = CALENDAR_DATE ( 2021, 30, 11 ) ;
#240 = AXIS2_PLACEMENT_3D ( 'NONE', #218, #116, #194 ) ;
#241 = CARTESIAN_POINT ( 'NONE',  ( 1.955229549752154679E-13, 8.998558695971043013E-33, 56.00000000000000000 ) ) ;
#242 = CONICAL_SURFACE ( 'NONE', #130, 1.978999999999997650, 0.7853981633974428389 ) ;
#243 = FACE_OUTER_BOUND ( 'NONE', #207, .T. ) ;
ENDSEC;
END-ISO-10303-21;
