ISO-10303-21;
HEADER;
FILE_DESCRIPTION (( 'STEP AP203' ),
    '1' );
FILE_NAME ('969434.step',
    '2021-11-30T14:02:14',
    ( '' ),
    ( '' ),
    'SwSTEP 2.0',
    'SolidWorks 2019',
    '' );
FILE_SCHEMA (( 'CONFIG_CONTROL_DESIGN' ));
ENDSEC;

DATA;
#1 = ADVANCED_FACE ( 'NONE', ( #54, #128 ), #19, .T. ) ;
#2 = COORDINATED_UNIVERSAL_TIME_OFFSET ( 1, 0, .AHEAD. ) ;
#3 = PERSON_AND_ORGANIZATION ( #38, #209 ) ;
#4 = DATE_AND_TIME ( #151, #172 ) ;
#5 = EDGE_LOOP ( 'NONE', ( #232 ) ) ;
#6 = APPROVAL_PERSON_ORGANIZATION ( #55, #155, #207 ) ;
#7 = DIRECTION ( 'NONE',  ( 0.0000000000000000000, 1.000000000000000000, 0.0000000000000000000 ) ) ;
#8 = PERSON_AND_ORGANIZATION_ROLE ( 'creator' ) ;
#9 = FACE_OUTER_BOUND ( 'NONE', #5, .T. ) ;
#10 = FACE_OUTER_BOUND ( 'NONE', #52, .T. ) ;
#11 = MANIFOLD_SOLID_BREP ( 'Corps-Déplacer/Copier1[1]', #76 ) ;
#12 = DIRECTION ( 'NONE',  ( 0.0000000000000000000, 1.000000000000000000, 0.0000000000000000000 ) ) ;
#13 = DATE_TIME_ROLE ( 'classification_date' ) ;
#14 = EDGE_LOOP ( 'NONE', ( #191 ) ) ;
#15 = DIRECTION ( 'NONE',  ( -3.491481338843133355E-15, 1.224646799147353207E-16, -1.000000000000000000 ) ) ;
#16 = CC_DESIGN_DATE_AND_TIME_ASSIGNMENT ( #105, #13, ( #200 ) ) ;
#17 = CIRCLE ( 'NONE', #221, 1.953999999999997517 ) ;
#18 = CC_DESIGN_APPROVAL ( #192, ( #144 ) ) ;
#19 = CYLINDRICAL_SURFACE ( 'NONE', #159, 1.499999999999997780 ) ;
#20 = PERSON_AND_ORGANIZATION ( #38, #209 ) ;
#21 = DIRECTION ( 'NONE',  ( 0.0000000000000000000, 0.0000000000000000000, 1.000000000000000000 ) ) ;
#22 = ORIENTED_EDGE ( 'NONE', *, *, #91, .T. ) ;
#23 = FACE_OUTER_BOUND ( 'NONE', #14, .T. ) ;
#24 = ORIENTED_EDGE ( 'NONE', *, *, #184, .T. ) ;
#25 = DIRECTION ( 'NONE',  ( 3.491481338843133355E-15, -1.224646799147353207E-16, 1.000000000000000000 ) ) ;
#26 = DIRECTION ( 'NONE',  ( -4.275831445896958607E-31, -1.000000000000000000, -1.224646799147353207E-16 ) ) ;
#27 = PERSON_AND_ORGANIZATION_ROLE ( 'design_supplier' ) ;
#28 = ORIENTED_EDGE ( 'NONE', *, *, #218, .T. ) ;
#29 = AXIS2_PLACEMENT_3D ( 'NONE', #42, #32, #12 ) ;
#30 = LOCAL_TIME ( 15, 2, 14.00000000000000000, #140 ) ;
#31 = VERTEX_POINT ( 'NONE', #242 ) ;
#32 = DIRECTION ( 'NONE',  ( -3.491481338843133355E-15, 1.224646799147353207E-16, -1.000000000000000000 ) ) ;
#33 = CARTESIAN_POINT ( 'NONE',  ( 6.982962677686266711E-14, -2.449293598294706513E-15, 20.00000000000000000 ) ) ;
#34 = EDGE_CURVE ( 'NONE', #240, #240, #233, .T. ) ;
#35 = PRODUCT ( '969434', '969434', '', ( #40 ) ) ;
#36 = LOCAL_TIME ( 15, 2, 14.00000000000000000, #2 ) ;
#37 = APPROVAL_ROLE ( '' ) ;
#38 = PERSON ( 'UNSPECIFIED', 'UNSPECIFIED', 'UNSPECIFIED', ('UNSPECIFIED'), ('UNSPECIFIED'), ('UNSPECIFIED') ) ;
#39 = AXIS2_PLACEMENT_3D ( 'NONE', #181, #239, #173 ) ;
#40 = MECHANICAL_CONTEXT ( 'NONE', #182, 'mechanical' ) ;
#41 = EDGE_CURVE ( 'NONE', #162, #162, #193, .T. ) ;
#42 = CARTESIAN_POINT ( 'NONE',  ( 1.944755105735625216E-13, -6.821282671250756903E-15, 55.70000000000000284 ) ) ;
#43 =( GEOMETRIC_REPRESENTATION_CONTEXT ( 3 ) GLOBAL_UNCERTAINTY_ASSIGNED_CONTEXT ( ( #223 ) ) GLOBAL_UNIT_ASSIGNED_CONTEXT ( ( #53, #202, #206 ) ) REPRESENTATION_CONTEXT ( 'NONE', 'WORKASPACE' ) );
#44 = FACE_OUTER_BOUND ( 'NONE', #174, .T. ) ;
#45 = SECURITY_CLASSIFICATION_LEVEL ( 'unclassified' ) ;
#46 = FACE_OUTER_BOUND ( 'NONE', #176, .T. ) ;
#47 = APPROVAL_ROLE ( '' ) ;
#48 = DIRECTION ( 'NONE',  ( 0.0000000000000000000, 1.000000000000000000, 0.0000000000000000000 ) ) ;
#49 = COORDINATED_UNIVERSAL_TIME_OFFSET ( 1, 0, .AHEAD. ) ;
#50 = CIRCLE ( 'NONE', #179, 1.499999999999996003 ) ;
#51 = PERSON_AND_ORGANIZATION ( #38, #209 ) ;
#52 = EDGE_LOOP ( 'NONE', ( #170 ) ) ;
#53 =( LENGTH_UNIT ( ) NAMED_UNIT ( * ) SI_UNIT ( .MILLI., .METRE. ) );
#54 = FACE_OUTER_BOUND ( 'NONE', #243, .T. ) ;
#55 = PERSON_AND_ORGANIZATION ( #38, #209 ) ;
#56 = EDGE_LOOP ( 'NONE', ( #119 ) ) ;
#57 = ADVANCED_BREP_SHAPE_REPRESENTATION ( '969434', ( #11, #94, #163 ), #43 ) ;
#58 = LOCAL_TIME ( 15, 2, 14.00000000000000000, #213 ) ;
#59 = ADVANCED_FACE ( 'NONE', ( #101 ), #236, .F. ) ;
#60 = DIRECTION ( 'NONE',  ( 4.275831445896958607E-31, 1.000000000000000000, 1.224646799147353207E-16 ) ) ;
#61 = DIRECTION ( 'NONE',  ( -3.491481338843133355E-15, 1.224646799147353207E-16, -1.000000000000000000 ) ) ;
#62 = CALENDAR_DATE ( 2021, 30, 11 ) ;
#63 = CARTESIAN_POINT ( 'NONE',  ( 1.955229549752154679E-13, 8.998558695971043013E-33, 56.00000000000000000 ) ) ;
#64 = APPROVAL_DATE_TIME ( #143, #96 ) ;
#65 = CARTESIAN_POINT ( 'NONE',  ( 6.982962677686266711E-14, 1.465265307660632496E-32, 20.00000000000000000 ) ) ;
#66 = PERSON_AND_ORGANIZATION ( #38, #209 ) ;
#67 = AXIS2_PLACEMENT_3D ( 'NONE', #33, #15, #183 ) ;
#68 = CC_DESIGN_APPROVAL ( #96, ( #200 ) ) ;
#69 = PERSON_AND_ORGANIZATION ( #38, #209 ) ;
#70 = CARTESIAN_POINT ( 'NONE',  ( 8.728703347107825500E-16, -3.061616997868380553E-17, 0.2499999999999997780 ) ) ;
#71 = CARTESIAN_POINT ( 'NONE',  ( 6.982962677686266711E-14, 1.953999999999999071, 20.00000000000000000 ) ) ;
#72 = CC_DESIGN_PERSON_AND_ORGANIZATION_ASSIGNMENT ( #66, #237, ( #222 ) ) ;
#73 = EDGE_LOOP ( 'NONE', ( #219 ) ) ;
#74 = DATE_AND_TIME ( #189, #36 ) ;
#75 = DIRECTION ( 'NONE',  ( 1.000000000000000000, 0.0000000000000000000, 0.0000000000000000000 ) ) ;
#76 = CLOSED_SHELL ( 'NONE', ( #59, #177, #1, #100, #77 ) ) ;
#77 = ADVANCED_FACE ( 'NONE', ( #224 ), #158, .F. ) ;
#78 = ORIENTED_EDGE ( 'NONE', *, *, #184, .F. ) ;
#79 = DIRECTION ( 'NONE',  ( -3.491481338843133355E-15, 1.224646799147353207E-16, -1.000000000000000000 ) ) ;
#80 = PERSON_AND_ORGANIZATION_ROLE ( 'design_owner' ) ;
#81 = FACE_OUTER_BOUND ( 'NONE', #73, .T. ) ;
#82 = EDGE_LOOP ( 'NONE', ( #132 ) ) ;
#83 = PRODUCT_RELATED_PRODUCT_CATEGORY ( 'detail', '', ( #35 ) ) ;
#84 = CARTESIAN_POINT ( 'NONE',  ( 1.955229549752154679E-13, -6.858022075225178552E-15, 56.00000000000000000 ) ) ;
#85 = CALENDAR_DATE ( 2021, 30, 11 ) ;
#86 = PERSON_AND_ORGANIZATION ( #38, #209 ) ;
#87 = CC_DESIGN_PERSON_AND_ORGANIZATION_ASSIGNMENT ( #3, #8, ( #144 ) ) ;
#88 = AXIS2_PLACEMENT_3D ( 'NONE', #122, #136, #199 ) ;
#89 = DIRECTION ( 'NONE',  ( 3.491481338843133355E-15, -1.224646799147353207E-16, 1.000000000000000000 ) ) ;
#90 = CARTESIAN_POINT ( 'NONE',  ( 1.955229549752154679E-13, 1.199999999999993072, 56.00000000000000000 ) ) ;
#91 = EDGE_CURVE ( 'NONE', #31, #31, #50, .T. ) ;
#92 = CONICAL_SURFACE ( 'NONE', #228, 1.499999999999996003, 0.5235987755982947078 ) ;
#93 = CARTESIAN_POINT ( 'NONE',  ( 1.944755105735625216E-13, 1.499999999999993117, 55.70000000000000284 ) ) ;
#94 = MANIFOLD_SOLID_BREP ( 'Corps-Déplacer/Copier1[2]', #103 ) ;
#95 = AXIS2_PLACEMENT_3D ( 'NONE', #63, #175, #60 ) ;
#96 = APPROVAL ( #217, 'UNSPECIFIED' ) ;
#97 = APPROVAL_STATUS ( 'not_yet_approved' ) ;
#98 = FACE_OUTER_BOUND ( 'NONE', #157, .T. ) ;
#99 = CARTESIAN_POINT ( 'NONE',  ( 7.257515685180265870E-14, -2.545593829970930195E-15, 20.78635106663628918 ) ) ;
#100 = ADVANCED_FACE ( 'NONE', ( #46, #212 ), #150, .T. ) ;
#101 = FACE_OUTER_BOUND ( 'NONE', #205, .T. ) ;
#102 = ORIENTED_EDGE ( 'NONE', *, *, #147, .F. ) ;
#103 = CLOSED_SHELL ( 'NONE', ( #118, #188, #106, #114 ) ) ;
#104 = LOCAL_TIME ( 15, 2, 14.00000000000000000, #49 ) ;
#105 = DATE_AND_TIME ( #195, #104 ) ;
#106 = ADVANCED_FACE ( 'NONE', ( #10, #23 ), #107, .T. ) ;
#107 = CYLINDRICAL_SURFACE ( 'NONE', #88, 1.953999999999999515 ) ;
#108 = PLANE ( 'NONE',  #225 ) ;
#109 = VERTEX_POINT ( 'NONE', #180 ) ;
#110 = VERTEX_POINT ( 'NONE', #93 ) ;
#111 = APPROVAL_PERSON_ORGANIZATION ( #166, #192, #37 ) ;
#112 = CC_DESIGN_PERSON_AND_ORGANIZATION_ASSIGNMENT ( #51, #138, ( #200 ) ) ;
#113 = AXIS2_PLACEMENT_3D ( 'NONE', #216, #89, #117 ) ;
#114 = ADVANCED_FACE ( 'NONE', ( #98 ), #108, .T. ) ;
#115 = ORIENTED_EDGE ( 'NONE', *, *, #34, .T. ) ;
#116 = FACE_BOUND ( 'NONE', #149, .T. ) ;
#117 = DIRECTION ( 'NONE',  ( -4.275831445896958607E-31, -1.000000000000000000, -1.224646799147353207E-16 ) ) ;
#118 = ADVANCED_FACE ( 'NONE', ( #44 ), #214, .F. ) ;
#119 = ORIENTED_EDGE ( 'NONE', *, *, #34, .F. ) ;
#120 = FACE_BOUND ( 'NONE', #121, .T. ) ;
#121 = EDGE_LOOP ( 'NONE', ( #78 ) ) ;
#122 = CARTESIAN_POINT ( 'NONE',  ( 0.0000000000000000000, 0.0000000000000000000, 0.0000000000000000000 ) ) ;
#123 = ORIENTED_EDGE ( 'NONE', *, *, #91, .F. ) ;
#124 = DESIGN_CONTEXT ( 'detailed design', #169, 'design' ) ;
#125 = DIRECTION ( 'NONE',  ( -3.942538268960569917E-31, -1.000000000000000000, -1.109725867436546438E-16 ) ) ;
#126 = AXIS2_PLACEMENT_3D ( 'NONE', #139, #79, #220 ) ;
#127 = VERTEX_POINT ( 'NONE', #129 ) ;
#128 = FACE_OUTER_BOUND ( 'NONE', #82, .T. ) ;
#129 = CARTESIAN_POINT ( 'NONE',  ( 8.728703347107833388E-16, 1.953999999999997517, 0.2500000000000000000 ) ) ;
#130 = APPROVAL_STATUS ( 'not_yet_approved' ) ;
#131 = DIRECTION ( 'NONE',  ( -3.491481338843133355E-15, 1.224646799147353207E-16, -1.000000000000000000 ) ) ;
#132 = ORIENTED_EDGE ( 'NONE', *, *, #147, .T. ) ;
#133 = CARTESIAN_POINT ( 'NONE',  ( 0.0000000000000000000, 0.0000000000000000000, 0.0000000000000000000 ) ) ;
#134 = CC_DESIGN_PERSON_AND_ORGANIZATION_ASSIGNMENT ( #20, #80, ( #35 ) ) ;
#135 = CIRCLE ( 'NONE', #29, 1.499999999999999778 ) ;
#136 = DIRECTION ( 'NONE',  ( -3.491481338843133355E-15, 1.224646799147353207E-16, -1.000000000000000000 ) ) ;
#137 = DATE_TIME_ROLE ( 'creation_date' ) ;
#138 = PERSON_AND_ORGANIZATION_ROLE ( 'classification_officer' ) ;
#139 = CARTESIAN_POINT ( 'NONE',  ( 1.955229549752154679E-13, -6.858022075225178552E-15, 56.00000000000000000 ) ) ;
#140 = COORDINATED_UNIVERSAL_TIME_OFFSET ( 1, 0, .AHEAD. ) ;
#141 = EDGE_LOOP ( 'NONE', ( #115 ) ) ;
#142 = DIRECTION ( 'NONE',  ( -3.491481338843133355E-15, 1.224646799147353207E-16, -1.000000000000000000 ) ) ;
#143 = DATE_AND_TIME ( #62, #58 ) ;
#144 = PRODUCT_DEFINITION ( 'UNKNOWN', '', #222, #124 ) ;
#145 = CC_DESIGN_APPROVAL ( #155, ( #222 ) ) ;
#146 = DIRECTION ( 'NONE',  ( -4.275831445896958607E-31, -1.000000000000000000, -1.224646799147353207E-16 ) ) ;
#147 = EDGE_CURVE ( 'NONE', #110, #110, #135, .T. ) ;
#148 = CIRCLE ( 'NONE', #39, 1.704000000000000181 ) ;
#149 = EDGE_LOOP ( 'NONE', ( #22 ) ) ;
#150 = CONICAL_SURFACE ( 'NONE', #126, 1.200000000000000178, 0.7853981633974450594 ) ;
#151 = CALENDAR_DATE ( 2021, 30, 11 ) ;
#152 = AXIS2_PLACEMENT_3D ( 'NONE', #161, #234, #160 ) ;
#153 = APPROVAL_PERSON_ORGANIZATION ( #69, #96, #47 ) ;
#154 = CARTESIAN_POINT ( 'NONE',  ( 6.982962677686266711E-14, 1.465265307660632496E-32, 20.00000000000000000 ) ) ;
#155 = APPROVAL ( #130, 'UNSPECIFIED' ) ;
#156 = DIRECTION ( 'NONE',  ( 3.491481338843133355E-15, -1.224646799147353207E-16, 1.000000000000000000 ) ) ;
#157 = EDGE_LOOP ( 'NONE', ( #165 ) ) ;
#158 = PLANE ( 'NONE',  #95 ) ;
#159 = AXIS2_PLACEMENT_3D ( 'NONE', #187, #131, #208 ) ;
#160 = DIRECTION ( 'NONE',  ( 0.0000000000000000000, 1.000000000000000000, 0.0000000000000000000 ) ) ;
#161 = CARTESIAN_POINT ( 'NONE',  ( 6.982962677686266711E-14, -2.449293598294706513E-15, 20.00000000000000000 ) ) ;
#162 = VERTEX_POINT ( 'NONE', #71 ) ;
#163 = AXIS2_PLACEMENT_3D ( 'NONE', #133, #21, #75 ) ;
#164 = CARTESIAN_POINT ( 'NONE',  ( -8.552847072295026068E-47, 1.704000000000000181, 0.0000000000000000000 ) ) ;
#165 = ORIENTED_EDGE ( 'NONE', *, *, #41, .F. ) ;
#166 = PERSON_AND_ORGANIZATION ( #38, #209 ) ;
#167 = CC_DESIGN_DATE_AND_TIME_ASSIGNMENT ( #4, #137, ( #144 ) ) ;
#168 = COORDINATED_UNIVERSAL_TIME_OFFSET ( 1, 0, .AHEAD. ) ;
#169 = APPLICATION_CONTEXT ( 'configuration controlled 3d designs of mechanical parts and assemblies' ) ;
#170 = ORIENTED_EDGE ( 'NONE', *, *, #198, .F. ) ;
#171 = CIRCLE ( 'NONE', #67, 1.954000000000001736 ) ;
#172 = LOCAL_TIME ( 15, 2, 14.00000000000000000, #168 ) ;
#173 = DIRECTION ( 'NONE',  ( 4.275831445896958607E-31, 1.000000000000000000, 1.224646799147353207E-16 ) ) ;
#174 = EDGE_LOOP ( 'NONE', ( #24 ) ) ;
#175 = DIRECTION ( 'NONE',  ( -3.491481338843133355E-15, 1.224646799147353207E-16, -1.000000000000000000 ) ) ;
#176 = EDGE_LOOP ( 'NONE', ( #102 ) ) ;
#177 = ADVANCED_FACE ( 'NONE', ( #81, #116 ), #92, .T. ) ;
#178 = DIRECTION ( 'NONE',  ( 3.491481338843133355E-15, -1.224646799147353207E-16, 1.000000000000000000 ) ) ;
#179 = AXIS2_PLACEMENT_3D ( 'NONE', #99, #142, #7 ) ;
#180 = CARTESIAN_POINT ( 'NONE',  ( 6.982962677686266711E-14, 1.953999999999999071, 20.00000000000000000 ) ) ;
#181 = CARTESIAN_POINT ( 'NONE',  ( -7.286016783808419329E-31, 2.555590669655806064E-32, -2.086798145747090175E-16 ) ) ;
#182 = APPLICATION_CONTEXT ( 'configuration controlled 3d designs of mechanical parts and assemblies' ) ;
#183 = DIRECTION ( 'NONE',  ( 0.0000000000000000000, 1.000000000000000000, 0.0000000000000000000 ) ) ;
#184 = EDGE_CURVE ( 'NONE', #226, #226, #148, .T. ) ;
#185 = CONICAL_SURFACE ( 'NONE', #227, 1.953999999999997517, 0.7853981633974426169 ) ;
#186 = APPLICATION_PROTOCOL_DEFINITION ( 'international standard', 'config_control_design', 1994, #182 ) ;
#187 = CARTESIAN_POINT ( 'NONE',  ( 0.0000000000000000000, 0.0000000000000000000, 0.0000000000000000000 ) ) ;
#188 = ADVANCED_FACE ( 'NONE', ( #120, #9 ), #185, .T. ) ;
#189 = CALENDAR_DATE ( 2021, 30, 11 ) ;
#190 = APPROVAL_DATE_TIME ( #74, #192 ) ;
#191 = ORIENTED_EDGE ( 'NONE', *, *, #41, .T. ) ;
#192 = APPROVAL ( #97, 'UNSPECIFIED' ) ;
#193 = CIRCLE ( 'NONE', #152, 1.954000000000001736 ) ;
#194 = DIRECTION ( 'NONE',  ( 0.0000000000000000000, 1.000000000000000000, 0.0000000000000000000 ) ) ;
#195 = CALENDAR_DATE ( 2021, 30, 11 ) ;
#196 = CARTESIAN_POINT ( 'NONE',  ( 7.257515685180265870E-14, -2.545593829970930195E-15, 20.78635106663628918 ) ) ;
#197 = CARTESIAN_POINT ( 'NONE',  ( 8.728703347107825500E-16, -3.061616997868380553E-17, 0.2499999999999997780 ) ) ;
#198 = EDGE_CURVE ( 'NONE', #127, #127, #17, .T. ) ;
#199 = DIRECTION ( 'NONE',  ( 4.275831445896958607E-31, 1.000000000000000000, 1.224646799147353454E-16 ) ) ;
#200 = SECURITY_CLASSIFICATION ( '', '', #45 ) ;
#201 = DIRECTION ( 'NONE',  ( 3.942538268960569917E-31, 1.000000000000000000, 1.109725867436546438E-16 ) ) ;
#202 =( NAMED_UNIT ( * ) PLANE_ANGLE_UNIT ( ) SI_UNIT ( $, .RADIAN. ) );
#203 = PRODUCT_DEFINITION_SHAPE ( 'NONE', 'NONE',  #144 ) ;
#204 = CC_DESIGN_SECURITY_CLASSIFICATION ( #200, ( #222 ) ) ;
#205 = EDGE_LOOP ( 'NONE', ( #28 ) ) ;
#206 =( NAMED_UNIT ( * ) SI_UNIT ( $, .STERADIAN. ) SOLID_ANGLE_UNIT ( ) );
#207 = APPROVAL_ROLE ( '' ) ;
#208 = DIRECTION ( 'NONE',  ( 4.275831445896959482E-31, 1.000000000000000000, 1.224646799147353207E-16 ) ) ;
#209 = ORGANIZATION ( 'UNSPECIFIED', 'UNSPECIFIED', '' ) ;
#210 = CC_DESIGN_PERSON_AND_ORGANIZATION_ASSIGNMENT ( #86, #27, ( #222 ) ) ;
#211 = APPLICATION_PROTOCOL_DEFINITION ( 'international standard', 'config_control_design', 1994, #169 ) ;
#212 = FACE_BOUND ( 'NONE', #141, .T. ) ;
#213 = COORDINATED_UNIVERSAL_TIME_OFFSET ( 1, 0, .AHEAD. ) ;
#214 = PLANE ( 'NONE',  #113 ) ;
#215 = SHAPE_DEFINITION_REPRESENTATION ( #203, #57 ) ;
#216 = CARTESIAN_POINT ( 'NONE',  ( -3.643008391904209665E-31, 1.277795334827903032E-32, -1.043399072873545087E-16 ) ) ;
#217 = APPROVAL_STATUS ( 'not_yet_approved' ) ;
#218 = EDGE_CURVE ( 'NONE', #109, #109, #171, .T. ) ;
#219 = ORIENTED_EDGE ( 'NONE', *, *, #218, .F. ) ;
#220 = DIRECTION ( 'NONE',  ( 0.0000000000000000000, 1.000000000000000000, 0.0000000000000000000 ) ) ;
#221 = AXIS2_PLACEMENT_3D ( 'NONE', #197, #230, #201 ) ;
#222 = PRODUCT_DEFINITION_FORMATION_WITH_SPECIFIED_SOURCE ( 'ANY', '', #35, .NOT_KNOWN. ) ;
#223 = UNCERTAINTY_MEASURE_WITH_UNIT (LENGTH_MEASURE( 1.000000000000000082E-05 ), #53, 'distance_accuracy_value', 'NONE');
#224 = FACE_OUTER_BOUND ( 'NONE', #56, .T. ) ;
#225 = AXIS2_PLACEMENT_3D ( 'NONE', #154, #178, #146 ) ;
#226 = VERTEX_POINT ( 'NONE', #164 ) ;
#227 = AXIS2_PLACEMENT_3D ( 'NONE', #70, #156, #125 ) ;
#228 = AXIS2_PLACEMENT_3D ( 'NONE', #196, #61, #194 ) ;
#229 = DIRECTION ( 'NONE',  ( -3.491481338843133355E-15, 1.224646799147353207E-16, -1.000000000000000000 ) ) ;
#230 = DIRECTION ( 'NONE',  ( -3.491481338843133355E-15, 1.224646799147353207E-16, -1.000000000000000000 ) ) ;
#231 = DATE_AND_TIME ( #85, #30 ) ;
#232 = ORIENTED_EDGE ( 'NONE', *, *, #198, .T. ) ;
#233 = CIRCLE ( 'NONE', #238, 1.200000000000000178 ) ;
#234 = DIRECTION ( 'NONE',  ( -3.491481338843133355E-15, 1.224646799147353207E-16, -1.000000000000000000 ) ) ;
#235 = APPROVAL_DATE_TIME ( #231, #155 ) ;
#236 = PLANE ( 'NONE',  #241 ) ;
#237 = PERSON_AND_ORGANIZATION_ROLE ( 'creator' ) ;
#238 = AXIS2_PLACEMENT_3D ( 'NONE', #84, #229, #48 ) ;
#239 = DIRECTION ( 'NONE',  ( -3.491481338843133355E-15, 1.224646799147353207E-16, -1.000000000000000000 ) ) ;
#240 = VERTEX_POINT ( 'NONE', #90 ) ;
#241 = AXIS2_PLACEMENT_3D ( 'NONE', #65, #25, #26 ) ;
#242 = CARTESIAN_POINT ( 'NONE',  ( 7.257515685180265870E-14, 1.499999999999993339, 20.78635106663628918 ) ) ;
#243 = EDGE_LOOP ( 'NONE', ( #123 ) ) ;
ENDSEC;
END-ISO-10303-21;
