ISO-10303-21;
HEADER;
FILE_DESCRIPTION (( 'STEP AP203' ),
    '1' );
FILE_NAME ('969433.step',
    '2021-11-30T14:02:13',
    ( '' ),
    ( '' ),
    'SwSTEP 2.0',
    'SolidWorks 2019',
    '' );
FILE_SCHEMA (( 'CONFIG_CONTROL_DESIGN' ));
ENDSEC;

DATA;
#1 = CARTESIAN_POINT ( 'NONE',  ( 6.982962677686265448E-14, 1.928999999999998494, 19.99999999999999645 ) ) ;
#2 = AXIS2_PLACEMENT_3D ( 'NONE', #147, #14, #166 ) ;
#3 = COORDINATED_UNIVERSAL_TIME_OFFSET ( 1, 0, .AHEAD. ) ;
#4 = CC_DESIGN_PERSON_AND_ORGANIZATION_ASSIGNMENT ( #7, #45, ( #52 ) ) ;
#5 = MANIFOLD_SOLID_BREP ( 'Corps-Déplacer/Copier1[1]', #24 ) ;
#6 = PERSON_AND_ORGANIZATION_ROLE ( 'classification_officer' ) ;
#7 = PERSON_AND_ORGANIZATION ( #47, #224 ) ;
#8 = ORIENTED_EDGE ( 'NONE', *, *, #164, .T. ) ;
#9 = LOCAL_TIME ( 15, 2, 13.00000000000000000, #20 ) ;
#10 = ADVANCED_FACE ( 'NONE', ( #212 ), #26, .F. ) ;
#11 = EDGE_LOOP ( 'NONE', ( #44 ) ) ;
#12 = ADVANCED_BREP_SHAPE_REPRESENTATION ( '969433', ( #5, #176, #190 ), #75 ) ;
#13 = DIRECTION ( 'NONE',  ( -3.491481338843133355E-15, 1.224646799147353207E-16, -1.000000000000000000 ) ) ;
#14 = DIRECTION ( 'NONE',  ( -3.491481338843133355E-15, 1.224646799147353207E-16, -1.000000000000000000 ) ) ;
#15 = DIRECTION ( 'NONE',  ( 0.0000000000000000000, 1.000000000000000000, 0.0000000000000000000 ) ) ;
#16 = PLANE ( 'NONE',  #70 ) ;
#17 = DESIGN_CONTEXT ( 'detailed design', #29, 'design' ) ;
#18 = DIRECTION ( 'NONE',  ( -3.491481338843133355E-15, 1.224646799147353207E-16, -1.000000000000000000 ) ) ;
#19 = CONICAL_SURFACE ( 'NONE', #80, 1.200000000000000178, 0.7853981633974450594 ) ;
#20 = COORDINATED_UNIVERSAL_TIME_OFFSET ( 1, 0, .AHEAD. ) ;
#21 = CALENDAR_DATE ( 2021, 30, 11 ) ;
#22 = CALENDAR_DATE ( 2021, 30, 11 ) ;
#23 = ADVANCED_FACE ( 'NONE', ( #181, #95 ), #94, .T. ) ;
#24 = CLOSED_SHELL ( 'NONE', ( #10, #109, #27, #121, #41 ) ) ;
#25 = EDGE_LOOP ( 'NONE', ( #161 ) ) ;
#26 = PLANE ( 'NONE',  #165 ) ;
#27 = ADVANCED_FACE ( 'NONE', ( #96, #146 ), #203, .T. ) ;
#28 = CC_DESIGN_SECURITY_CLASSIFICATION ( #83, ( #52 ) ) ;
#29 = APPLICATION_CONTEXT ( 'configuration controlled 3d designs of mechanical parts and assemblies' ) ;
#30 = DIRECTION ( 'NONE',  ( 0.0000000000000000000, 1.000000000000000000, 0.0000000000000000000 ) ) ;
#31 = CC_DESIGN_PERSON_AND_ORGANIZATION_ASSIGNMENT ( #42, #229, ( #92 ) ) ;
#32 = CARTESIAN_POINT ( 'NONE',  ( 6.982962677686265448E-14, -2.449293598294706119E-15, 19.99999999999999645 ) ) ;
#33 = DIRECTION ( 'NONE',  ( 3.491481338843133355E-15, -1.224646799147353207E-16, 1.000000000000000000 ) ) ;
#34 = AXIS2_PLACEMENT_3D ( 'NONE', #114, #18, #15 ) ;
#35 = DIRECTION ( 'NONE',  ( -3.491481338843133355E-15, 1.224646799147353207E-16, -1.000000000000000000 ) ) ;
#36 = PLANE ( 'NONE',  #123 ) ;
#37 = PRODUCT_DEFINITION ( 'UNKNOWN', '', #52, #17 ) ;
#38 = AXIS2_PLACEMENT_3D ( 'NONE', #91, #33, #198 ) ;
#39 = PERSON_AND_ORGANIZATION_ROLE ( 'creator' ) ;
#40 =( NAMED_UNIT ( * ) PLANE_ANGLE_UNIT ( ) SI_UNIT ( $, .RADIAN. ) );
#41 = ADVANCED_FACE ( 'NONE', ( #222 ), #36, .F. ) ;
#42 = PERSON_AND_ORGANIZATION ( #47, #224 ) ;
#43 = CARTESIAN_POINT ( 'NONE',  ( 7.242397127498880242E-14, 1.499999999999993339, 20.74304979644706748 ) ) ;
#44 = ORIENTED_EDGE ( 'NONE', *, *, #59, .T. ) ;
#45 = PERSON_AND_ORGANIZATION_ROLE ( 'creator' ) ;
#46 = EDGE_LOOP ( 'NONE', ( #141 ) ) ;
#47 = PERSON ( 'UNSPECIFIED', 'UNSPECIFIED', 'UNSPECIFIED', ('UNSPECIFIED'), ('UNSPECIFIED'), ('UNSPECIFIED') ) ;
#48 = ORIENTED_EDGE ( 'NONE', *, *, #59, .F. ) ;
#49 = CARTESIAN_POINT ( 'NONE',  ( 7.242397127498880242E-14, -2.540290953777305762E-15, 20.74304979644706748 ) ) ;
#50 = AXIS2_PLACEMENT_3D ( 'NONE', #54, #223, #129 ) ;
#51 = AXIS2_PLACEMENT_3D ( 'NONE', #32, #113, #69 ) ;
#52 = PRODUCT_DEFINITION_FORMATION_WITH_SPECIFIED_SOURCE ( 'ANY', '', #92, .NOT_KNOWN. ) ;
#53 = DIRECTION ( 'NONE',  ( 3.993633891938285890E-31, 1.000000000000000000, 1.124108006724215501E-16 ) ) ;
#54 = CARTESIAN_POINT ( 'NONE',  ( 1.955229549752154679E-13, -6.858022075225178552E-15, 56.00000000000000000 ) ) ;
#55 = DIRECTION ( 'NONE',  ( -3.491481338843133355E-15, 1.224646799147353207E-16, -1.000000000000000000 ) ) ;
#56 = CC_DESIGN_APPROVAL ( #145, ( #83 ) ) ;
#57 = FACE_OUTER_BOUND ( 'NONE', #25, .T. ) ;
#58 = APPLICATION_PROTOCOL_DEFINITION ( 'international standard', 'config_control_design', 1994, #29 ) ;
#59 = EDGE_CURVE ( 'NONE', #81, #81, #157, .T. ) ;
#60 = VERTEX_POINT ( 'NONE', #61 ) ;
#61 = CARTESIAN_POINT ( 'NONE',  ( 6.982962677686265448E-14, 1.928999999999998494, 19.99999999999999645 ) ) ;
#62 = CLOSED_SHELL ( 'NONE', ( #73, #23, #78, #63 ) ) ;
#63 = ADVANCED_FACE ( 'NONE', ( #178 ), #16, .T. ) ;
#64 = PERSON_AND_ORGANIZATION ( #47, #224 ) ;
#65 = COORDINATED_UNIVERSAL_TIME_OFFSET ( 1, 0, .AHEAD. ) ;
#66 = ORIENTED_EDGE ( 'NONE', *, *, #116, .F. ) ;
#67 = CIRCLE ( 'NONE', #199, 1.499999999999996003 ) ;
#68 = DIRECTION ( 'NONE',  ( -4.275831445896958607E-31, -1.000000000000000000, -1.224646799147353207E-16 ) ) ;
#69 = DIRECTION ( 'NONE',  ( 0.0000000000000000000, 1.000000000000000000, 0.0000000000000000000 ) ) ;
#70 = AXIS2_PLACEMENT_3D ( 'NONE', #238, #127, #71 ) ;
#71 = DIRECTION ( 'NONE',  ( -4.275831445896958607E-31, -1.000000000000000000, -1.224646799147353207E-16 ) ) ;
#72 = CYLINDRICAL_SURFACE ( 'NONE', #233, 1.928999999999999382 ) ;
#73 = ADVANCED_FACE ( 'NONE', ( #168 ), #241, .F. ) ;
#74 = DIRECTION ( 'NONE',  ( 3.491481338843133355E-15, -1.224646799147353207E-16, 1.000000000000000000 ) ) ;
#75 =( GEOMETRIC_REPRESENTATION_CONTEXT ( 3 ) GLOBAL_UNCERTAINTY_ASSIGNED_CONTEXT ( ( #202 ) ) GLOBAL_UNIT_ASSIGNED_CONTEXT ( ( #227, #40, #243 ) ) REPRESENTATION_CONTEXT ( 'NONE', 'WORKASPACE' ) );
#76 = CARTESIAN_POINT ( 'NONE',  ( 0.0000000000000000000, 0.0000000000000000000, 0.0000000000000000000 ) ) ;
#77 = DATE_AND_TIME ( #170, #9 ) ;
#78 = ADVANCED_FACE ( 'NONE', ( #225, #201 ), #72, .T. ) ;
#79 = DIRECTION ( 'NONE',  ( 1.000000000000000000, 0.0000000000000000000, 0.0000000000000000000 ) ) ;
#80 = AXIS2_PLACEMENT_3D ( 'NONE', #180, #197, #30 ) ;
#81 = VERTEX_POINT ( 'NONE', #136 ) ;
#82 = CONICAL_SURFACE ( 'NONE', #104, 1.499999999999996003, 0.5235987755982908221 ) ;
#83 = SECURITY_CLASSIFICATION ( '', '', #214 ) ;
#84 = PERSON_AND_ORGANIZATION_ROLE ( 'design_supplier' ) ;
#85 = LOCAL_TIME ( 15, 2, 13.00000000000000000, #118 ) ;
#86 = EDGE_LOOP ( 'NONE', ( #144 ) ) ;
#87 = CC_DESIGN_PERSON_AND_ORGANIZATION_ASSIGNMENT ( #191, #84, ( #52 ) ) ;
#88 = ORIENTED_EDGE ( 'NONE', *, *, #172, .T. ) ;
#89 = ORIENTED_EDGE ( 'NONE', *, *, #205, .T. ) ;
#90 = CC_DESIGN_DATE_AND_TIME_ASSIGNMENT ( #158, #138, ( #83 ) ) ;
#91 = CARTESIAN_POINT ( 'NONE',  ( 8.728703347107825500E-16, -3.061616997868380553E-17, 0.2499999999999997780 ) ) ;
#92 = PRODUCT ( '969433', '969433', '', ( #132 ) ) ;
#93 = CARTESIAN_POINT ( 'NONE',  ( 8.728703347107825500E-16, -3.061616997868380553E-17, 0.2499999999999997780 ) ) ;
#94 = CONICAL_SURFACE ( 'NONE', #38, 1.928999999999997605, 0.7853981633974428389 ) ;
#95 = FACE_OUTER_BOUND ( 'NONE', #11, .T. ) ;
#96 = FACE_OUTER_BOUND ( 'NONE', #125, .T. ) ;
#97 = CARTESIAN_POINT ( 'NONE',  ( -3.393649344894672607E-31, 1.190331954926280170E-32, -9.719798032829021015E-17 ) ) ;
#98 = APPROVAL_STATUS ( 'not_yet_approved' ) ;
#99 = PERSON_AND_ORGANIZATION ( #47, #224 ) ;
#100 = DATE_AND_TIME ( #21, #186 ) ;
#101 = CIRCLE ( 'NONE', #235, 1.499999999999999778 ) ;
#102 = VERTEX_POINT ( 'NONE', #43 ) ;
#103 = PERSON_AND_ORGANIZATION ( #47, #224 ) ;
#104 = AXIS2_PLACEMENT_3D ( 'NONE', #131, #35, #218 ) ;
#105 = DATE_AND_TIME ( #22, #200 ) ;
#106 = EDGE_LOOP ( 'NONE', ( #120 ) ) ;
#107 = CIRCLE ( 'NONE', #160, 1.679000000000000270 ) ;
#108 = ORIENTED_EDGE ( 'NONE', *, *, #205, .F. ) ;
#109 = ADVANCED_FACE ( 'NONE', ( #57, #183 ), #82, .T. ) ;
#110 = DIRECTION ( 'NONE',  ( 0.0000000000000000000, 1.000000000000000000, 0.0000000000000000000 ) ) ;
#111 = DIRECTION ( 'NONE',  ( 4.275831445896958607E-31, 1.000000000000000000, 1.224646799147352961E-16 ) ) ;
#112 = CARTESIAN_POINT ( 'NONE',  ( 1.955229549752154679E-13, 8.998558695971043013E-33, 56.00000000000000000 ) ) ;
#113 = DIRECTION ( 'NONE',  ( -3.491481338843133355E-15, 1.224646799147353207E-16, -1.000000000000000000 ) ) ;
#114 = CARTESIAN_POINT ( 'NONE',  ( 6.982962677686265448E-14, -2.449293598294706119E-15, 19.99999999999999645 ) ) ;
#115 = PERSON_AND_ORGANIZATION ( #47, #224 ) ;
#116 = EDGE_CURVE ( 'NONE', #155, #155, #107, .T. ) ;
#117 = CALENDAR_DATE ( 2021, 30, 11 ) ;
#118 = COORDINATED_UNIVERSAL_TIME_OFFSET ( 1, 0, .AHEAD. ) ;
#119 = APPROVAL_DATE_TIME ( #100, #231 ) ;
#120 = ORIENTED_EDGE ( 'NONE', *, *, #148, .T. ) ;
#121 = ADVANCED_FACE ( 'NONE', ( #163, #237 ), #19, .T. ) ;
#122 = COORDINATED_UNIVERSAL_TIME_OFFSET ( 1, 0, .AHEAD. ) ;
#123 = AXIS2_PLACEMENT_3D ( 'NONE', #112, #221, #196 ) ;
#124 = EDGE_LOOP ( 'NONE', ( #89 ) ) ;
#125 = EDGE_LOOP ( 'NONE', ( #108 ) ) ;
#126 = DIRECTION ( 'NONE',  ( -3.491481338843133355E-15, 1.224646799147353207E-16, -1.000000000000000000 ) ) ;
#127 = DIRECTION ( 'NONE',  ( 3.491481338843133355E-15, -1.224646799147353207E-16, 1.000000000000000000 ) ) ;
#128 = CC_DESIGN_PERSON_AND_ORGANIZATION_ASSIGNMENT ( #206, #39, ( #37 ) ) ;
#129 = DIRECTION ( 'NONE',  ( 0.0000000000000000000, 1.000000000000000000, 0.0000000000000000000 ) ) ;
#130 = CARTESIAN_POINT ( 'NONE',  ( 6.982962677686265448E-14, 4.393498935559270825E-31, 19.99999999999999645 ) ) ;
#131 = CARTESIAN_POINT ( 'NONE',  ( 7.242397127498880242E-14, -2.540290953777305762E-15, 20.74304979644706748 ) ) ;
#132 = MECHANICAL_CONTEXT ( 'NONE', #193, 'mechanical' ) ;
#133 = APPROVAL_DATE_TIME ( #77, #210 ) ;
#134 = APPROVAL_ROLE ( '' ) ;
#135 = CARTESIAN_POINT ( 'NONE',  ( 1.944755105735625216E-13, 1.499999999999993117, 55.70000000000000284 ) ) ;
#136 = CARTESIAN_POINT ( 'NONE',  ( 8.728703347107833388E-16, 1.928999999999997605, 0.2500000000000000000 ) ) ;
#137 = APPROVAL_PERSON_ORGANIZATION ( #99, #231, #134 ) ;
#138 = DATE_TIME_ROLE ( 'classification_date' ) ;
#139 = EDGE_LOOP ( 'NONE', ( #192 ) ) ;
#140 = APPROVAL_STATUS ( 'not_yet_approved' ) ;
#141 = ORIENTED_EDGE ( 'NONE', *, *, #164, .F. ) ;
#142 = EDGE_LOOP ( 'NONE', ( #48 ) ) ;
#143 = CIRCLE ( 'NONE', #50, 1.200000000000000178 ) ;
#144 = ORIENTED_EDGE ( 'NONE', *, *, #172, .F. ) ;
#145 = APPROVAL ( #140, 'UNSPECIFIED' ) ;
#146 = FACE_OUTER_BOUND ( 'NONE', #139, .T. ) ;
#147 = CARTESIAN_POINT ( 'NONE',  ( 0.0000000000000000000, 0.0000000000000000000, 0.0000000000000000000 ) ) ;
#148 = EDGE_CURVE ( 'NONE', #230, #230, #179, .T. ) ;
#149 = CARTESIAN_POINT ( 'NONE',  ( -1.696824672447336304E-31, 5.951659774631400849E-33, -4.859899016414510508E-17 ) ) ;
#150 = CARTESIAN_POINT ( 'NONE',  ( 0.0000000000000000000, 0.0000000000000000000, 0.0000000000000000000 ) ) ;
#151 = DIRECTION ( 'NONE',  ( 3.491481338843133355E-15, -1.224646799147353207E-16, 1.000000000000000000 ) ) ;
#152 = CARTESIAN_POINT ( 'NONE',  ( 1.944755105735625216E-13, -6.821282671250756903E-15, 55.70000000000000284 ) ) ;
#153 = CARTESIAN_POINT ( 'NONE',  ( 1.955229549752154679E-13, 1.199999999999993072, 56.00000000000000000 ) ) ;
#154 = LOCAL_TIME ( 15, 2, 13.00000000000000000, #122 ) ;
#155 = VERTEX_POINT ( 'NONE', #189 ) ;
#156 = CALENDAR_DATE ( 2021, 30, 11 ) ;
#157 = CIRCLE ( 'NONE', #242, 1.928999999999997605 ) ;
#158 = DATE_AND_TIME ( #156, #154 ) ;
#159 = ORIENTED_EDGE ( 'NONE', *, *, #234, .F. ) ;
#160 = AXIS2_PLACEMENT_3D ( 'NONE', #97, #55, #169 ) ;
#161 = ORIENTED_EDGE ( 'NONE', *, *, #148, .F. ) ;
#162 = EDGE_LOOP ( 'NONE', ( #8 ) ) ;
#163 = FACE_OUTER_BOUND ( 'NONE', #236, .T. ) ;
#164 = EDGE_CURVE ( 'NONE', #208, #208, #143, .T. ) ;
#165 = AXIS2_PLACEMENT_3D ( 'NONE', #130, #74, #68 ) ;
#166 = DIRECTION ( 'NONE',  ( 4.275831445896959482E-31, 1.000000000000000000, 1.224646799147353207E-16 ) ) ;
#167 = DIRECTION ( 'NONE',  ( -3.491481338843133355E-15, 1.224646799147353207E-16, -1.000000000000000000 ) ) ;
#168 = FACE_OUTER_BOUND ( 'NONE', #174, .T. ) ;
#169 = DIRECTION ( 'NONE',  ( 4.275831445896959482E-31, 1.000000000000000000, 1.224646799147353207E-16 ) ) ;
#170 = CALENDAR_DATE ( 2021, 30, 11 ) ;
#171 = DIRECTION ( 'NONE',  ( -3.491481338843133355E-15, 1.224646799147353207E-16, -1.000000000000000000 ) ) ;
#172 = EDGE_CURVE ( 'NONE', #60, #60, #216, .T. ) ;
#173 = VERTEX_POINT ( 'NONE', #135 ) ;
#174 = EDGE_LOOP ( 'NONE', ( #215 ) ) ;
#175 = APPROVAL_DATE_TIME ( #105, #145 ) ;
#176 = MANIFOLD_SOLID_BREP ( 'Corps-Déplacer/Copier1[2]', #62 ) ;
#177 = PRODUCT_DEFINITION_SHAPE ( 'NONE', 'NONE',  #37 ) ;
#178 = FACE_OUTER_BOUND ( 'NONE', #86, .T. ) ;
#179 = CIRCLE ( 'NONE', #51, 1.929000000000000714 ) ;
#180 = CARTESIAN_POINT ( 'NONE',  ( 1.955229549752154679E-13, -6.858022075225178552E-15, 56.00000000000000000 ) ) ;
#181 = FACE_BOUND ( 'NONE', #194, .T. ) ;
#182 = CC_DESIGN_PERSON_AND_ORGANIZATION_ASSIGNMENT ( #103, #6, ( #83 ) ) ;
#183 = FACE_BOUND ( 'NONE', #124, .T. ) ;
#184 = APPROVAL_ROLE ( '' ) ;
#185 = CC_DESIGN_APPROVAL ( #231, ( #52 ) ) ;
#186 = LOCAL_TIME ( 15, 2, 13.00000000000000000, #3 ) ;
#187 = DATE_AND_TIME ( #117, #85 ) ;
#188 = DATE_TIME_ROLE ( 'creation_date' ) ;
#189 = CARTESIAN_POINT ( 'NONE',  ( 3.785471652766322713E-31, 1.679000000000000270, 1.084202172485504434E-16 ) ) ;
#190 = AXIS2_PLACEMENT_3D ( 'NONE', #76, #207, #79 ) ;
#191 = PERSON_AND_ORGANIZATION ( #47, #224 ) ;
#192 = ORIENTED_EDGE ( 'NONE', *, *, #234, .T. ) ;
#193 = APPLICATION_CONTEXT ( 'configuration controlled 3d designs of mechanical parts and assemblies' ) ;
#194 = EDGE_LOOP ( 'NONE', ( #66 ) ) ;
#195 = AXIS2_PLACEMENT_3D ( 'NONE', #149, #151, #240 ) ;
#196 = DIRECTION ( 'NONE',  ( 4.275831445896958607E-31, 1.000000000000000000, 1.224646799147353207E-16 ) ) ;
#197 = DIRECTION ( 'NONE',  ( -3.491481338843133355E-15, 1.224646799147353207E-16, -1.000000000000000000 ) ) ;
#198 = DIRECTION ( 'NONE',  ( -3.993633891938285890E-31, -1.000000000000000000, -1.124108006724215501E-16 ) ) ;
#199 = AXIS2_PLACEMENT_3D ( 'NONE', #49, #126, #110 ) ;
#200 = LOCAL_TIME ( 15, 2, 13.00000000000000000, #65 ) ;
#201 = FACE_OUTER_BOUND ( 'NONE', #217, .T. ) ;
#202 = UNCERTAINTY_MEASURE_WITH_UNIT (LENGTH_MEASURE( 1.000000000000000082E-05 ), #227, 'distance_accuracy_value', 'NONE');
#203 = CYLINDRICAL_SURFACE ( 'NONE', #2, 1.499999999999997780 ) ;
#204 = DIRECTION ( 'NONE',  ( 0.0000000000000000000, 1.000000000000000000, 0.0000000000000000000 ) ) ;
#205 = EDGE_CURVE ( 'NONE', #102, #102, #67, .T. ) ;
#206 = PERSON_AND_ORGANIZATION ( #47, #224 ) ;
#207 = DIRECTION ( 'NONE',  ( 0.0000000000000000000, 0.0000000000000000000, 1.000000000000000000 ) ) ;
#208 = VERTEX_POINT ( 'NONE', #153 ) ;
#209 = APPROVAL_PERSON_ORGANIZATION ( #115, #210, #184 ) ;
#210 = APPROVAL ( #98, 'UNSPECIFIED' ) ;
#211 = APPROVAL_ROLE ( '' ) ;
#212 = FACE_OUTER_BOUND ( 'NONE', #106, .T. ) ;
#213 = CC_DESIGN_DATE_AND_TIME_ASSIGNMENT ( #187, #188, ( #37 ) ) ;
#214 = SECURITY_CLASSIFICATION_LEVEL ( 'unclassified' ) ;
#215 = ORIENTED_EDGE ( 'NONE', *, *, #116, .T. ) ;
#216 = CIRCLE ( 'NONE', #34, 1.929000000000000714 ) ;
#217 = EDGE_LOOP ( 'NONE', ( #88 ) ) ;
#218 = DIRECTION ( 'NONE',  ( 0.0000000000000000000, 1.000000000000000000, 0.0000000000000000000 ) ) ;
#219 = CC_DESIGN_APPROVAL ( #210, ( #37 ) ) ;
#220 = APPROVAL_PERSON_ORGANIZATION ( #64, #145, #211 ) ;
#221 = DIRECTION ( 'NONE',  ( -3.491481338843133355E-15, 1.224646799147353207E-16, -1.000000000000000000 ) ) ;
#222 = FACE_OUTER_BOUND ( 'NONE', #46, .T. ) ;
#223 = DIRECTION ( 'NONE',  ( -3.491481338843133355E-15, 1.224646799147353207E-16, -1.000000000000000000 ) ) ;
#224 = ORGANIZATION ( 'UNSPECIFIED', 'UNSPECIFIED', '' ) ;
#225 = FACE_OUTER_BOUND ( 'NONE', #142, .T. ) ;
#226 = APPLICATION_PROTOCOL_DEFINITION ( 'international standard', 'config_control_design', 1994, #193 ) ;
#227 =( LENGTH_UNIT ( ) NAMED_UNIT ( * ) SI_UNIT ( .MILLI., .METRE. ) );
#228 = APPROVAL_STATUS ( 'not_yet_approved' ) ;
#229 = PERSON_AND_ORGANIZATION_ROLE ( 'design_owner' ) ;
#230 = VERTEX_POINT ( 'NONE', #1 ) ;
#231 = APPROVAL ( #228, 'UNSPECIFIED' ) ;
#232 = SHAPE_DEFINITION_REPRESENTATION ( #177, #12 ) ;
#233 = AXIS2_PLACEMENT_3D ( 'NONE', #150, #13, #111 ) ;
#234 = EDGE_CURVE ( 'NONE', #173, #173, #101, .T. ) ;
#235 = AXIS2_PLACEMENT_3D ( 'NONE', #152, #171, #204 ) ;
#236 = EDGE_LOOP ( 'NONE', ( #159 ) ) ;
#237 = FACE_BOUND ( 'NONE', #162, .T. ) ;
#238 = CARTESIAN_POINT ( 'NONE',  ( 6.982962677686265448E-14, 4.393498935559270825E-31, 19.99999999999999645 ) ) ;
#239 = PRODUCT_RELATED_PRODUCT_CATEGORY ( 'detail', '', ( #92 ) ) ;
#240 = DIRECTION ( 'NONE',  ( -4.275831445896958607E-31, -1.000000000000000000, -1.224646799147353207E-16 ) ) ;
#241 = PLANE ( 'NONE',  #195 ) ;
#242 = AXIS2_PLACEMENT_3D ( 'NONE', #93, #167, #53 ) ;
#243 =( NAMED_UNIT ( * ) SI_UNIT ( $, .STERADIAN. ) SOLID_ANGLE_UNIT ( ) );
ENDSEC;
END-ISO-10303-21;
