ISO-10303-21;
HEADER;
FILE_DESCRIPTION (( 'STEP AP203' ),
    '1' );
FILE_NAME ('969432.step',
    '2021-11-30T14:02:13',
    ( '' ),
    ( '' ),
    'SwSTEP 2.0',
    'SolidWorks 2019',
    '' );
FILE_SCHEMA (( 'CONFIG_CONTROL_DESIGN' ));
ENDSEC;

DATA;
#1 = COORDINATED_UNIVERSAL_TIME_OFFSET ( 1, 0, .AHEAD. ) ;
#2 = LOCAL_TIME ( 15, 2, 13.00000000000000000, #24 ) ;
#3 = ADVANCED_FACE ( 'NONE', ( #47 ), #9, .F. ) ;
#4 = ORIENTED_EDGE ( 'NONE', *, *, #198, .F. ) ;
#5 = APPROVAL ( #94, 'UNSPECIFIED' ) ;
#6 = DIRECTION ( 'NONE',  ( 4.275831445896958607E-31, 1.000000000000000000, 1.224646799147353207E-16 ) ) ;
#7 = EDGE_LOOP ( 'NONE', ( #160 ) ) ;
#8 = EDGE_LOOP ( 'NONE', ( #191 ) ) ;
#9 = PLANE ( 'NONE',  #207 ) ;
#10 = AXIS2_PLACEMENT_3D ( 'NONE', #157, #28, #139 ) ;
#11 = CARTESIAN_POINT ( 'NONE',  ( 1.955229549752154679E-13, 1.199999999999993072, 56.00000000000000000 ) ) ;
#12 =( NAMED_UNIT ( * ) PLANE_ANGLE_UNIT ( ) SI_UNIT ( $, .RADIAN. ) );
#13 = CARTESIAN_POINT ( 'NONE',  ( 6.982962677686266711E-14, -2.449293598294706513E-15, 20.00000000000000000 ) ) ;
#14 = PRODUCT_DEFINITION_SHAPE ( 'NONE', 'NONE',  #214 ) ;
#15 = LOCAL_TIME ( 15, 2, 13.00000000000000000, #114 ) ;
#16 = CARTESIAN_POINT ( 'NONE',  ( 6.982962677686266711E-14, 1.427771313094086056E-32, 20.00000000000000000 ) ) ;
#17 = DESIGN_CONTEXT ( 'detailed design', #219, 'design' ) ;
#18 = CARTESIAN_POINT ( 'NONE',  ( 6.982962677686266711E-14, 1.903999999999999471, 20.00000000000000000 ) ) ;
#19 = DATE_AND_TIME ( #227, #15 ) ;
#20 = APPROVAL_STATUS ( 'not_yet_approved' ) ;
#21 = APPROVAL ( #20, 'UNSPECIFIED' ) ;
#22 = CALENDAR_DATE ( 2021, 30, 11 ) ;
#23 = APPLICATION_PROTOCOL_DEFINITION ( 'international standard', 'config_control_design', 1994, #219 ) ;
#24 = COORDINATED_UNIVERSAL_TIME_OFFSET ( 1, 0, .AHEAD. ) ;
#25 = CIRCLE ( 'NONE', #224, 1.654000000000000581 ) ;
#26 = CARTESIAN_POINT ( 'NONE',  ( 1.944755105735625216E-13, -6.821282671250756903E-15, 55.70000000000000284 ) ) ;
#27 = DIRECTION ( 'NONE',  ( -3.491481338843133355E-15, 1.224646799147353207E-16, -1.000000000000000000 ) ) ;
#28 = DIRECTION ( 'NONE',  ( -3.491481338843133355E-15, 1.224646799147353207E-16, -1.000000000000000000 ) ) ;
#29 = APPROVAL_PERSON_ORGANIZATION ( #205, #21, #38 ) ;
#30 = EDGE_LOOP ( 'NONE', ( #215 ) ) ;
#31 = CARTESIAN_POINT ( 'NONE',  ( 1.955229549752154679E-13, 8.998558695971043013E-33, 56.00000000000000000 ) ) ;
#32 = DIRECTION ( 'NONE',  ( -3.491481338843133355E-15, 1.224646799147353207E-16, -1.000000000000000000 ) ) ;
#33 = EDGE_CURVE ( 'NONE', #145, #145, #25, .T. ) ;
#34 = CC_DESIGN_APPROVAL ( #222, ( #57 ) ) ;
#35 = FACE_BOUND ( 'NONE', #8, .T. ) ;
#36 = DIRECTION ( 'NONE',  ( -4.275831445896958607E-31, -1.000000000000000000, -1.224646799147353207E-16 ) ) ;
#37 = CIRCLE ( 'NONE', #164, 1.499999999999999778 ) ;
#38 = APPROVAL_ROLE ( '' ) ;
#39 = COORDINATED_UNIVERSAL_TIME_OFFSET ( 1, 0, .AHEAD. ) ;
#40 = DATE_AND_TIME ( #171, #2 ) ;
#41 = SECURITY_CLASSIFICATION_LEVEL ( 'unclassified' ) ;
#42 = DATE_AND_TIME ( #172, #221 ) ;
#43 = AXIS2_PLACEMENT_3D ( 'NONE', #220, #32, #53 ) ;
#44 = DIRECTION ( 'NONE',  ( -3.491481338843133355E-15, 1.224646799147353207E-16, -1.000000000000000000 ) ) ;
#45 = FACE_BOUND ( 'NONE', #238, .T. ) ;
#46 = CARTESIAN_POINT ( 'NONE',  ( 7.227278569817493352E-14, -2.534988077583681330E-15, 20.69974852625784578 ) ) ;
#47 = FACE_OUTER_BOUND ( 'NONE', #30, .T. ) ;
#48 = EDGE_CURVE ( 'NONE', #87, #87, #159, .T. ) ;
#49 = CARTESIAN_POINT ( 'NONE',  ( 0.0000000000000000000, 0.0000000000000000000, 0.0000000000000000000 ) ) ;
#50 = FACE_OUTER_BOUND ( 'NONE', #211, .T. ) ;
#51 = CLOSED_SHELL ( 'NONE', ( #105, #189, #166, #110 ) ) ;
#52 = DIRECTION ( 'NONE',  ( 3.491481338843133355E-15, -1.224646799147353207E-16, 1.000000000000000000 ) ) ;
#53 = DIRECTION ( 'NONE',  ( 0.0000000000000000000, 1.000000000000000000, 0.0000000000000000000 ) ) ;
#54 = DIRECTION ( 'NONE',  ( 4.046071311737896107E-31, 1.000000000000000000, 1.138867828241077679E-16 ) ) ;
#55 = PERSON_AND_ORGANIZATION ( #231, #74 ) ;
#56 = ADVANCED_FACE ( 'NONE', ( #82, #232 ), #83, .T. ) ;
#57 = PRODUCT_DEFINITION_FORMATION_WITH_SPECIFIED_SOURCE ( 'ANY', '', #127, .NOT_KNOWN. ) ;
#58 = PERSON_AND_ORGANIZATION_ROLE ( 'creator' ) ;
#59 = ADVANCED_FACE ( 'NONE', ( #193, #45 ), #86, .T. ) ;
#60 = AXIS2_PLACEMENT_3D ( 'NONE', #16, #52, #36 ) ;
#61 = ORIENTED_EDGE ( 'NONE', *, *, #209, .T. ) ;
#62 = EDGE_LOOP ( 'NONE', ( #64 ) ) ;
#63 = ADVANCED_FACE ( 'NONE', ( #102 ), #196, .F. ) ;
#64 = ORIENTED_EDGE ( 'NONE', *, *, #48, .F. ) ;
#65 = ORIENTED_EDGE ( 'NONE', *, *, #118, .F. ) ;
#66 = CARTESIAN_POINT ( 'NONE',  ( 8.728703347107825500E-16, -3.061616997868380553E-17, 0.2499999999999997780 ) ) ;
#67 = CC_DESIGN_PERSON_AND_ORGANIZATION_ASSIGNMENT ( #97, #137, ( #57 ) ) ;
#68 = PLANE ( 'NONE',  #60 ) ;
#69 = DIRECTION ( 'NONE',  ( 4.275831445896958607E-31, 1.000000000000000000, 1.224646799147353207E-16 ) ) ;
#70 = AXIS2_PLACEMENT_3D ( 'NONE', #178, #124, #236 ) ;
#71 = CARTESIAN_POINT ( 'NONE',  ( 0.0000000000000000000, 1.654000000000000581, 0.0000000000000000000 ) ) ;
#72 = FACE_OUTER_BOUND ( 'NONE', #195, .T. ) ;
#73 = DATE_AND_TIME ( #242, #169 ) ;
#74 = ORGANIZATION ( 'UNSPECIFIED', 'UNSPECIFIED', '' ) ;
#75 = ADVANCED_FACE ( 'NONE', ( #176, #155 ), #122, .T. ) ;
#76 = PERSON_AND_ORGANIZATION ( #231, #74 ) ;
#77 = AXIS2_PLACEMENT_3D ( 'NONE', #146, #197, #184 ) ;
#78 = PERSON_AND_ORGANIZATION ( #231, #74 ) ;
#79 = ORIENTED_EDGE ( 'NONE', *, *, #230, .T. ) ;
#80 = CIRCLE ( 'NONE', #135, 1.200000000000000178 ) ;
#81 = EDGE_LOOP ( 'NONE', ( #65 ) ) ;
#82 = FACE_OUTER_BOUND ( 'NONE', #62, .T. ) ;
#83 = CYLINDRICAL_SURFACE ( 'NONE', #142, 1.499999999999997780 ) ;
#84 = MANIFOLD_SOLID_BREP ( 'Corps-Déplacer/Copier1[1]', #173 ) ;
#85 = ORIENTED_EDGE ( 'NONE', *, *, #230, .F. ) ;
#86 = CONICAL_SURFACE ( 'NONE', #10, 1.200000000000000178, 0.7853981633974450594 ) ;
#87 = VERTEX_POINT ( 'NONE', #240 ) ;
#88 = APPLICATION_PROTOCOL_DEFINITION ( 'international standard', 'config_control_design', 1994, #130 ) ;
#89 = CIRCLE ( 'NONE', #116, 1.903999999999997472 ) ;
#90 = DIRECTION ( 'NONE',  ( 0.0000000000000000000, 1.000000000000000000, 0.0000000000000000000 ) ) ;
#91 = CC_DESIGN_DATE_AND_TIME_ASSIGNMENT ( #73, #93, ( #147 ) ) ;
#92 = CC_DESIGN_APPROVAL ( #5, ( #147 ) ) ;
#93 = DATE_TIME_ROLE ( 'classification_date' ) ;
#94 = APPROVAL_STATUS ( 'not_yet_approved' ) ;
#95 = PERSON_AND_ORGANIZATION_ROLE ( 'design_owner' ) ;
#96 = CIRCLE ( 'NONE', #43, 1.904000000000001913 ) ;
#97 = PERSON_AND_ORGANIZATION ( #231, #74 ) ;
#98 = DIRECTION ( 'NONE',  ( -3.491481338843133355E-15, 1.224646799147353207E-16, -1.000000000000000000 ) ) ;
#99 = EDGE_CURVE ( 'NONE', #144, #144, #37, .T. ) ;
#100 = DIRECTION ( 'NONE',  ( -4.275831445896958607E-31, -1.000000000000000000, -1.224646799147353207E-16 ) ) ;
#101 = AXIS2_PLACEMENT_3D ( 'NONE', #31, #27, #6 ) ;
#102 = FACE_OUTER_BOUND ( 'NONE', #138, .T. ) ;
#103 = EDGE_LOOP ( 'NONE', ( #192 ) ) ;
#104 = DIRECTION ( 'NONE',  ( 0.0000000000000000000, 1.000000000000000000, 0.0000000000000000000 ) ) ;
#105 = ADVANCED_FACE ( 'NONE', ( #223 ), #165, .F. ) ;
#106 = DIRECTION ( 'NONE',  ( -3.491481338843133355E-15, 1.224646799147353207E-16, -1.000000000000000000 ) ) ;
#107 = DIRECTION ( 'NONE',  ( 0.0000000000000000000, 1.000000000000000000, 0.0000000000000000000 ) ) ;
#108 = DIRECTION ( 'NONE',  ( -3.491481338843133355E-15, 1.224646799147353207E-16, -1.000000000000000000 ) ) ;
#109 = CARTESIAN_POINT ( 'NONE',  ( 8.728703347107833388E-16, 1.903999999999997472, 0.2500000000000000000 ) ) ;
#110 = ADVANCED_FACE ( 'NONE', ( #201 ), #68, .T. ) ;
#111 = COORDINATED_UNIVERSAL_TIME_OFFSET ( 1, 0, .AHEAD. ) ;
#112 = ADVANCED_BREP_SHAPE_REPRESENTATION ( '969432', ( #84, #177, #237 ), #217 ) ;
#113 = CC_DESIGN_APPROVAL ( #21, ( #214 ) ) ;
#114 = COORDINATED_UNIVERSAL_TIME_OFFSET ( 1, 0, .AHEAD. ) ;
#115 = PERSON_AND_ORGANIZATION ( #231, #74 ) ;
#116 = AXIS2_PLACEMENT_3D ( 'NONE', #66, #183, #54 ) ;
#117 = DIRECTION ( 'NONE',  ( -3.491481338843133355E-15, 1.224646799147353207E-16, -1.000000000000000000 ) ) ;
#118 = EDGE_CURVE ( 'NONE', #128, #128, #190, .T. ) ;
#119 = EDGE_LOOP ( 'NONE', ( #140 ) ) ;
#120 = CC_DESIGN_PERSON_AND_ORGANIZATION_ASSIGNMENT ( #115, #188, ( #57 ) ) ;
#121 = DIRECTION ( 'NONE',  ( 4.275831445896959482E-31, 1.000000000000000000, 1.224646799147353207E-16 ) ) ;
#122 = CONICAL_SURFACE ( 'NONE', #202, 1.499999999999996003, 0.5235987755982929315 ) ;
#123 = CC_DESIGN_SECURITY_CLASSIFICATION ( #147, ( #57 ) ) ;
#124 = DIRECTION ( 'NONE',  ( -3.491481338843133355E-15, 1.224646799147353207E-16, -1.000000000000000000 ) ) ;
#125 = CARTESIAN_POINT ( 'NONE',  ( 6.982962677686266711E-14, 1.427771313094086056E-32, 20.00000000000000000 ) ) ;
#126 = DIRECTION ( 'NONE',  ( -4.275831445896958607E-31, -1.000000000000000000, -1.224646799147353207E-16 ) ) ;
#127 = PRODUCT ( '969432', '969432', '', ( #153 ) ) ;
#128 = VERTEX_POINT ( 'NONE', #18 ) ;
#129 = CC_DESIGN_DATE_AND_TIME_ASSIGNMENT ( #40, #208, ( #214 ) ) ;
#130 = APPLICATION_CONTEXT ( 'configuration controlled 3d designs of mechanical parts and assemblies' ) ;
#131 = CARTESIAN_POINT ( 'NONE',  ( 1.955229549752154679E-13, -6.858022075225178552E-15, 56.00000000000000000 ) ) ;
#132 = CARTESIAN_POINT ( 'NONE',  ( -3.536112605756785656E-31, 1.240301340261356866E-32, -1.012782902894861448E-16 ) ) ;
#133 = APPROVAL_PERSON_ORGANIZATION ( #78, #222, #229 ) ;
#134 = APPROVAL_ROLE ( '' ) ;
#135 = AXIS2_PLACEMENT_3D ( 'NONE', #131, #106, #90 ) ;
#136 = PERSON_AND_ORGANIZATION ( #231, #74 ) ;
#137 = PERSON_AND_ORGANIZATION_ROLE ( 'creator' ) ;
#138 = EDGE_LOOP ( 'NONE', ( #85 ) ) ;
#139 = DIRECTION ( 'NONE',  ( 0.0000000000000000000, 1.000000000000000000, 0.0000000000000000000 ) ) ;
#140 = ORIENTED_EDGE ( 'NONE', *, *, #33, .T. ) ;
#141 = CARTESIAN_POINT ( 'NONE',  ( 0.0000000000000000000, 0.0000000000000000000, 0.0000000000000000000 ) ) ;
#142 = AXIS2_PLACEMENT_3D ( 'NONE', #141, #117, #121 ) ;
#143 = CARTESIAN_POINT ( 'NONE',  ( -7.072225211513571311E-31, 2.480602680522713731E-32, -2.025565805789722896E-16 ) ) ;
#144 = VERTEX_POINT ( 'NONE', #163 ) ;
#145 = VERTEX_POINT ( 'NONE', #71 ) ;
#146 = CARTESIAN_POINT ( 'NONE',  ( 8.728703347107825500E-16, -3.061616997868380553E-17, 0.2499999999999997780 ) ) ;
#147 = SECURITY_CLASSIFICATION ( '', '', #41 ) ;
#148 =( NAMED_UNIT ( * ) SI_UNIT ( $, .STERADIAN. ) SOLID_ANGLE_UNIT ( ) );
#149 = CARTESIAN_POINT ( 'NONE',  ( 6.982962677686266711E-14, 1.903999999999999471, 20.00000000000000000 ) ) ;
#150 = PERSON_AND_ORGANIZATION_ROLE ( 'classification_officer' ) ;
#151 = UNCERTAINTY_MEASURE_WITH_UNIT (LENGTH_MEASURE( 1.000000000000000082E-05 ), #162, 'distance_accuracy_value', 'NONE');
#152 = AXIS2_PLACEMENT_3D ( 'NONE', #49, #167, #69 ) ;
#153 = MECHANICAL_CONTEXT ( 'NONE', #130, 'mechanical' ) ;
#154 = APPROVAL_STATUS ( 'not_yet_approved' ) ;
#155 = FACE_BOUND ( 'NONE', #7, .T. ) ;
#156 = ORIENTED_EDGE ( 'NONE', *, *, #99, .F. ) ;
#157 = CARTESIAN_POINT ( 'NONE',  ( 1.955229549752154679E-13, -6.858022075225178552E-15, 56.00000000000000000 ) ) ;
#158 = ORIENTED_EDGE ( 'NONE', *, *, #99, .T. ) ;
#159 = CIRCLE ( 'NONE', #70, 1.499999999999996003 ) ;
#160 = ORIENTED_EDGE ( 'NONE', *, *, #48, .T. ) ;
#161 = CC_DESIGN_PERSON_AND_ORGANIZATION_ASSIGNMENT ( #136, #58, ( #214 ) ) ;
#162 =( LENGTH_UNIT ( ) NAMED_UNIT ( * ) SI_UNIT ( .MILLI., .METRE. ) );
#163 = CARTESIAN_POINT ( 'NONE',  ( 1.944755105735625216E-13, 1.499999999999993117, 55.70000000000000284 ) ) ;
#164 = AXIS2_PLACEMENT_3D ( 'NONE', #26, #98, #174 ) ;
#165 = PLANE ( 'NONE',  #186 ) ;
#166 = ADVANCED_FACE ( 'NONE', ( #72, #200 ), #185, .T. ) ;
#167 = DIRECTION ( 'NONE',  ( -3.491481338843133355E-15, 1.224646799147353207E-16, -1.000000000000000000 ) ) ;
#168 = DIRECTION ( 'NONE',  ( 1.000000000000000000, 0.0000000000000000000, 0.0000000000000000000 ) ) ;
#169 = LOCAL_TIME ( 15, 2, 13.00000000000000000, #1 ) ;
#170 = SHAPE_DEFINITION_REPRESENTATION ( #14, #112 ) ;
#171 = CALENDAR_DATE ( 2021, 30, 11 ) ;
#172 = CALENDAR_DATE ( 2021, 30, 11 ) ;
#173 = CLOSED_SHELL ( 'NONE', ( #3, #75, #56, #59, #63 ) ) ;
#174 = DIRECTION ( 'NONE',  ( 0.0000000000000000000, 1.000000000000000000, 0.0000000000000000000 ) ) ;
#175 = EDGE_LOOP ( 'NONE', ( #158 ) ) ;
#176 = FACE_OUTER_BOUND ( 'NONE', #81, .T. ) ;
#177 = MANIFOLD_SOLID_BREP ( 'Corps-Déplacer/Copier1[2]', #51 ) ;
#178 = CARTESIAN_POINT ( 'NONE',  ( 7.227278569817493352E-14, -2.534988077583681330E-15, 20.69974852625784578 ) ) ;
#179 = EDGE_LOOP ( 'NONE', ( #61 ) ) ;
#180 = VERTEX_POINT ( 'NONE', #149 ) ;
#181 = CC_DESIGN_PERSON_AND_ORGANIZATION_ASSIGNMENT ( #76, #150, ( #147 ) ) ;
#182 = VERTEX_POINT ( 'NONE', #109 ) ;
#183 = DIRECTION ( 'NONE',  ( -3.491481338843133355E-15, 1.224646799147353207E-16, -1.000000000000000000 ) ) ;
#184 = DIRECTION ( 'NONE',  ( -4.046071311737896107E-31, -1.000000000000000000, -1.138867828241077679E-16 ) ) ;
#185 = CYLINDRICAL_SURFACE ( 'NONE', #152, 1.903999999999999693 ) ;
#186 = AXIS2_PLACEMENT_3D ( 'NONE', #132, #241, #126 ) ;
#187 = DATE_AND_TIME ( #22, #212 ) ;
#188 = PERSON_AND_ORGANIZATION_ROLE ( 'design_supplier' ) ;
#189 = ADVANCED_FACE ( 'NONE', ( #35, #50 ), #199, .T. ) ;
#190 = CIRCLE ( 'NONE', #194, 1.904000000000001913 ) ;
#191 = ORIENTED_EDGE ( 'NONE', *, *, #33, .F. ) ;
#192 = ORIENTED_EDGE ( 'NONE', *, *, #209, .F. ) ;
#193 = FACE_OUTER_BOUND ( 'NONE', #235, .T. ) ;
#194 = AXIS2_PLACEMENT_3D ( 'NONE', #13, #108, #107 ) ;
#195 = EDGE_LOOP ( 'NONE', ( #4 ) ) ;
#196 = PLANE ( 'NONE',  #101 ) ;
#197 = DIRECTION ( 'NONE',  ( 3.491481338843133355E-15, -1.224646799147353207E-16, 1.000000000000000000 ) ) ;
#198 = EDGE_CURVE ( 'NONE', #182, #182, #89, .T. ) ;
#199 = CONICAL_SURFACE ( 'NONE', #77, 1.903999999999997472, 0.7853981633974422838 ) ;
#200 = FACE_OUTER_BOUND ( 'NONE', #179, .T. ) ;
#201 = FACE_OUTER_BOUND ( 'NONE', #103, .T. ) ;
#202 = AXIS2_PLACEMENT_3D ( 'NONE', #46, #216, #104 ) ;
#203 = APPROVAL_DATE_TIME ( #187, #222 ) ;
#204 = CC_DESIGN_PERSON_AND_ORGANIZATION_ASSIGNMENT ( #55, #95, ( #127 ) ) ;
#205 = PERSON_AND_ORGANIZATION ( #231, #74 ) ;
#206 = DIRECTION ( 'NONE',  ( 0.0000000000000000000, 0.0000000000000000000, 1.000000000000000000 ) ) ;
#207 = AXIS2_PLACEMENT_3D ( 'NONE', #125, #218, #100 ) ;
#208 = DATE_TIME_ROLE ( 'creation_date' ) ;
#209 = EDGE_CURVE ( 'NONE', #180, #180, #96, .T. ) ;
#210 = CARTESIAN_POINT ( 'NONE',  ( 0.0000000000000000000, 0.0000000000000000000, 0.0000000000000000000 ) ) ;
#211 = EDGE_LOOP ( 'NONE', ( #234 ) ) ;
#212 = LOCAL_TIME ( 15, 2, 13.00000000000000000, #111 ) ;
#213 = DIRECTION ( 'NONE',  ( 4.275831445896958607E-31, 1.000000000000000000, 1.224646799147353207E-16 ) ) ;
#214 = PRODUCT_DEFINITION ( 'UNKNOWN', '', #57, #17 ) ;
#215 = ORIENTED_EDGE ( 'NONE', *, *, #118, .T. ) ;
#216 = DIRECTION ( 'NONE',  ( -3.491481338843133355E-15, 1.224646799147353207E-16, -1.000000000000000000 ) ) ;
#217 =( GEOMETRIC_REPRESENTATION_CONTEXT ( 3 ) GLOBAL_UNCERTAINTY_ASSIGNED_CONTEXT ( ( #151 ) ) GLOBAL_UNIT_ASSIGNED_CONTEXT ( ( #162, #12, #148 ) ) REPRESENTATION_CONTEXT ( 'NONE', 'WORKASPACE' ) );
#218 = DIRECTION ( 'NONE',  ( 3.491481338843133355E-15, -1.224646799147353207E-16, 1.000000000000000000 ) ) ;
#219 = APPLICATION_CONTEXT ( 'configuration controlled 3d designs of mechanical parts and assemblies' ) ;
#220 = CARTESIAN_POINT ( 'NONE',  ( 6.982962677686266711E-14, -2.449293598294706513E-15, 20.00000000000000000 ) ) ;
#221 = LOCAL_TIME ( 15, 2, 13.00000000000000000, #39 ) ;
#222 = APPROVAL ( #154, 'UNSPECIFIED' ) ;
#223 = FACE_OUTER_BOUND ( 'NONE', #119, .T. ) ;
#224 = AXIS2_PLACEMENT_3D ( 'NONE', #143, #44, #213 ) ;
#225 = PERSON_AND_ORGANIZATION ( #231, #74 ) ;
#226 = APPROVAL_DATE_TIME ( #42, #21 ) ;
#227 = CALENDAR_DATE ( 2021, 30, 11 ) ;
#228 = APPROVAL_PERSON_ORGANIZATION ( #225, #5, #134 ) ;
#229 = APPROVAL_ROLE ( '' ) ;
#230 = EDGE_CURVE ( 'NONE', #239, #239, #80, .T. ) ;
#231 = PERSON ( 'UNSPECIFIED', 'UNSPECIFIED', 'UNSPECIFIED', ('UNSPECIFIED'), ('UNSPECIFIED'), ('UNSPECIFIED') ) ;
#232 = FACE_OUTER_BOUND ( 'NONE', #175, .T. ) ;
#233 = PRODUCT_RELATED_PRODUCT_CATEGORY ( 'detail', '', ( #127 ) ) ;
#234 = ORIENTED_EDGE ( 'NONE', *, *, #198, .T. ) ;
#235 = EDGE_LOOP ( 'NONE', ( #156 ) ) ;
#236 = DIRECTION ( 'NONE',  ( 0.0000000000000000000, 1.000000000000000000, 0.0000000000000000000 ) ) ;
#237 = AXIS2_PLACEMENT_3D ( 'NONE', #210, #206, #168 ) ;
#238 = EDGE_LOOP ( 'NONE', ( #79 ) ) ;
#239 = VERTEX_POINT ( 'NONE', #11 ) ;
#240 = CARTESIAN_POINT ( 'NONE',  ( 7.227278569817493352E-14, 1.499999999999993339, 20.69974852625784578 ) ) ;
#241 = DIRECTION ( 'NONE',  ( 3.491481338843133355E-15, -1.224646799147353207E-16, 1.000000000000000000 ) ) ;
#242 = CALENDAR_DATE ( 2021, 30, 11 ) ;
#243 = APPROVAL_DATE_TIME ( #19, #5 ) ;
ENDSEC;
END-ISO-10303-21;
