ISO-10303-21;
HEADER;
FILE_DESCRIPTION (( 'STEP AP203' ),
    '1' );
FILE_NAME ('969431.step',
    '2021-11-30T14:02:12',
    ( '' ),
    ( '' ),
    'SwSTEP 2.0',
    'SolidWorks 2019',
    '' );
FILE_SCHEMA (( 'CONFIG_CONTROL_DESIGN' ));
ENDSEC;

DATA;
#1 = AXIS2_PLACEMENT_3D ( 'NONE', #221, #47, #224 ) ;
#2 = CC_DESIGN_PERSON_AND_ORGANIZATION_ASSIGNMENT ( #121, #219, ( #132 ) ) ;
#3 = ADVANCED_FACE ( 'NONE', ( #11, #157 ), #241, .T. ) ;
#4 = VERTEX_POINT ( 'NONE', #73 ) ;
#5 = CARTESIAN_POINT ( 'NONE',  ( 0.0000000000000000000, 0.0000000000000000000, 0.0000000000000000000 ) ) ;
#6 = ORIENTED_EDGE ( 'NONE', *, *, #181, .T. ) ;
#7 = AXIS2_PLACEMENT_3D ( 'NONE', #99, #34, #80 ) ;
#8 = EDGE_CURVE ( 'NONE', #36, #36, #205, .T. ) ;
#9 = EDGE_LOOP ( 'NONE', ( #230 ) ) ;
#10 = PERSON_AND_ORGANIZATION_ROLE ( 'design_supplier' ) ;
#11 = FACE_OUTER_BOUND ( 'NONE', #214, .T. ) ;
#12 = PERSON_AND_ORGANIZATION ( #101, #123 ) ;
#13 = CARTESIAN_POINT ( 'NONE',  ( 8.728703347107825500E-16, -3.061616997868380553E-17, 0.2499999999999997780 ) ) ;
#14 = PERSON_AND_ORGANIZATION ( #101, #123 ) ;
#15 = PLANE ( 'NONE',  #163 ) ;
#16 = CARTESIAN_POINT ( 'NONE',  ( -1.621997622144138490E-31, 5.689201812665572483E-33, -4.645585826563721706E-17 ) ) ;
#17 = CARTESIAN_POINT ( 'NONE',  ( 6.982962677686265448E-14, -2.449293598294706119E-15, 19.99999999999999645 ) ) ;
#18 = DIRECTION ( 'NONE',  ( 4.067433884661538383E-31, 1.000000000000000000, 1.144880857957239579E-16 ) ) ;
#19 = AXIS2_PLACEMENT_3D ( 'NONE', #120, #142, #204 ) ;
#20 = CARTESIAN_POINT ( 'NONE',  ( 8.728703347107833388E-16, 1.893999999999997463, 0.2500000000000000000 ) ) ;
#21 = VERTEX_POINT ( 'NONE', #169 ) ;
#22 = EDGE_LOOP ( 'NONE', ( #45 ) ) ;
#23 = CONICAL_SURFACE ( 'NONE', #229, 1.893999999999997463, 0.7853981633974432830 ) ;
#24 = CC_DESIGN_PERSON_AND_ORGANIZATION_ASSIGNMENT ( #26, #10, ( #156 ) ) ;
#25 = ORIENTED_EDGE ( 'NONE', *, *, #49, .T. ) ;
#26 = PERSON_AND_ORGANIZATION ( #101, #123 ) ;
#27 = FACE_OUTER_BOUND ( 'NONE', #116, .T. ) ;
#28 = PERSON_AND_ORGANIZATION_ROLE ( 'design_owner' ) ;
#29 = DIRECTION ( 'NONE',  ( 4.275831445896958607E-31, 1.000000000000000000, 1.224646799147353207E-16 ) ) ;
#30 = DATE_AND_TIME ( #155, #223 ) ;
#31 = CALENDAR_DATE ( 2021, 30, 11 ) ;
#32 = FACE_OUTER_BOUND ( 'NONE', #9, .T. ) ;
#33 = CONICAL_SURFACE ( 'NONE', #39, 1.200000000000000178, 0.7853981633974450594 ) ;
#34 = DIRECTION ( 'NONE',  ( -3.491481338843133355E-15, 1.224646799147353207E-16, -1.000000000000000000 ) ) ;
#35 = DESIGN_CONTEXT ( 'detailed design', #136, 'design' ) ;
#36 = VERTEX_POINT ( 'NONE', #129 ) ;
#37 = ADVANCED_FACE ( 'NONE', ( #67, #197 ), #23, .T. ) ;
#38 = VERTEX_POINT ( 'NONE', #189 ) ;
#39 = AXIS2_PLACEMENT_3D ( 'NONE', #54, #124, #206 ) ;
#40 = APPROVAL ( #140, 'UNSPECIFIED' ) ;
#41 = APPROVAL_STATUS ( 'not_yet_approved' ) ;
#42 = PERSON_AND_ORGANIZATION ( #101, #123 ) ;
#43 = AXIS2_PLACEMENT_3D ( 'NONE', #88, #167, #182 ) ;
#44 = DATE_AND_TIME ( #31, #152 ) ;
#45 = ORIENTED_EDGE ( 'NONE', *, *, #130, .F. ) ;
#46 = PLANE ( 'NONE',  #216 ) ;
#47 = DIRECTION ( 'NONE',  ( 0.0000000000000000000, 0.0000000000000000000, 1.000000000000000000 ) ) ;
#48 = AXIS2_PLACEMENT_3D ( 'NONE', #5, #127, #209 ) ;
#49 = EDGE_CURVE ( 'NONE', #188, #188, #128, .T. ) ;
#50 = DIRECTION ( 'NONE',  ( 3.491481338843133355E-15, -1.224646799147353207E-16, 1.000000000000000000 ) ) ;
#51 = LOCAL_TIME ( 15, 2, 12.00000000000000000, #131 ) ;
#52 = FACE_OUTER_BOUND ( 'NONE', #150, .T. ) ;
#53 = CARTESIAN_POINT ( 'NONE',  ( 0.0000000000000000000, 0.0000000000000000000, 0.0000000000000000000 ) ) ;
#54 = CARTESIAN_POINT ( 'NONE',  ( 1.955229549752154679E-13, -6.858022075225178552E-15, 56.00000000000000000 ) ) ;
#55 = AXIS2_PLACEMENT_3D ( 'NONE', #227, #185, #236 ) ;
#56 = APPROVAL ( #41, 'UNSPECIFIED' ) ;
#57 = DATE_AND_TIME ( #111, #51 ) ;
#58 = SECURITY_CLASSIFICATION_LEVEL ( 'unclassified' ) ;
#59 =( LENGTH_UNIT ( ) NAMED_UNIT ( * ) SI_UNIT ( .MILLI., .METRE. ) );
#60 =( GEOMETRIC_REPRESENTATION_CONTEXT ( 3 ) GLOBAL_UNCERTAINTY_ASSIGNED_CONTEXT ( ( #145 ) ) GLOBAL_UNIT_ASSIGNED_CONTEXT ( ( #59, #162, #63 ) ) REPRESENTATION_CONTEXT ( 'NONE', 'WORKASPACE' ) );
#61 = EDGE_LOOP ( 'NONE', ( #154 ) ) ;
#62 = APPLICATION_PROTOCOL_DEFINITION ( 'international standard', 'config_control_design', 1994, #136 ) ;
#63 =( NAMED_UNIT ( * ) SI_UNIT ( $, .STERADIAN. ) SOLID_ANGLE_UNIT ( ) );
#64 = CC_DESIGN_DATE_AND_TIME_ASSIGNMENT ( #57, #215, ( #175 ) ) ;
#65 = DIRECTION ( 'NONE',  ( -3.491481338843133355E-15, 1.224646799147353207E-16, -1.000000000000000000 ) ) ;
#66 = AXIS2_PLACEMENT_3D ( 'NONE', #199, #180, #108 ) ;
#67 = FACE_BOUND ( 'NONE', #93, .T. ) ;
#68 = DIRECTION ( 'NONE',  ( -3.491481338843133355E-15, 1.224646799147353207E-16, -1.000000000000000000 ) ) ;
#69 = ADVANCED_FACE ( 'NONE', ( #32 ), #122, .F. ) ;
#70 = MANIFOLD_SOLID_BREP ( 'Corps-Déplacer/Copier1[1]', #89 ) ;
#71 = ADVANCED_FACE ( 'NONE', ( #117 ), #15, .F. ) ;
#72 = APPROVAL_PERSON_ORGANIZATION ( #42, #56, #151 ) ;
#73 = CARTESIAN_POINT ( 'NONE',  ( 6.982962677686265448E-14, 1.893999999999999906, 19.99999999999999645 ) ) ;
#74 = PERSON_AND_ORGANIZATION ( #101, #123 ) ;
#75 = EDGE_LOOP ( 'NONE', ( #218 ) ) ;
#76 = CC_DESIGN_APPROVAL ( #40, ( #132 ) ) ;
#77 = APPROVAL ( #103, 'UNSPECIFIED' ) ;
#78 = DATE_TIME_ROLE ( 'creation_date' ) ;
#79 = CC_DESIGN_PERSON_AND_ORGANIZATION_ASSIGNMENT ( #196, #28, ( #86 ) ) ;
#80 = DIRECTION ( 'NONE',  ( 0.0000000000000000000, 1.000000000000000000, 0.0000000000000000000 ) ) ;
#81 = CALENDAR_DATE ( 2021, 30, 11 ) ;
#82 = CARTESIAN_POINT ( 'NONE',  ( 1.955229549752154679E-13, 8.998558695971043013E-33, 56.00000000000000000 ) ) ;
#83 = CIRCLE ( 'NONE', #92, 1.894000000000002126 ) ;
#84 = ADVANCED_FACE ( 'NONE', ( #27, #85 ), #147, .T. ) ;
#85 = FACE_BOUND ( 'NONE', #61, .T. ) ;
#86 = PRODUCT ( '969431', '969431', '', ( #97 ) ) ;
#87 = DIRECTION ( 'NONE',  ( -4.275831445896958607E-31, -1.000000000000000000, -1.224646799147353207E-16 ) ) ;
#88 = CARTESIAN_POINT ( 'NONE',  ( 7.221231146744935819E-14, -2.532866927106231242E-15, 20.68242801818215426 ) ) ;
#89 = CLOSED_SHELL ( 'NONE', ( #69, #84, #3, #125, #212 ) ) ;
#90 = PRODUCT_DEFINITION_SHAPE ( 'NONE', 'NONE',  #132 ) ;
#91 = CC_DESIGN_DATE_AND_TIME_ASSIGNMENT ( #30, #78, ( #132 ) ) ;
#92 = AXIS2_PLACEMENT_3D ( 'NONE', #104, #220, #225 ) ;
#93 = EDGE_LOOP ( 'NONE', ( #173 ) ) ;
#94 = PERSON_AND_ORGANIZATION_ROLE ( 'classification_officer' ) ;
#95 = AXIS2_PLACEMENT_3D ( 'NONE', #53, #159, #222 ) ;
#96 = ORIENTED_EDGE ( 'NONE', *, *, #192, .T. ) ;
#97 = MECHANICAL_CONTEXT ( 'NONE', #126, 'mechanical' ) ;
#98 = EDGE_LOOP ( 'NONE', ( #113 ) ) ;
#99 = CARTESIAN_POINT ( 'NONE',  ( 1.944755105735625216E-13, -6.821282671250756903E-15, 55.70000000000000284 ) ) ;
#100 = VERTEX_POINT ( 'NONE', #105 ) ;
#101 = PERSON ( 'UNSPECIFIED', 'UNSPECIFIED', 'UNSPECIFIED', ('UNSPECIFIED'), ('UNSPECIFIED'), ('UNSPECIFIED') ) ;
#102 = DIRECTION ( 'NONE',  ( -4.067433884661538383E-31, -1.000000000000000000, -1.144880857957239579E-16 ) ) ;
#103 = APPROVAL_STATUS ( 'not_yet_approved' ) ;
#104 = CARTESIAN_POINT ( 'NONE',  ( 6.982962677686265448E-14, -2.449293598294706119E-15, 19.99999999999999645 ) ) ;
#105 = CARTESIAN_POINT ( 'NONE',  ( 7.221231146744935819E-14, 1.499999999999993339, 20.68242801818215426 ) ) ;
#106 = AXIS2_PLACEMENT_3D ( 'NONE', #143, #65, #18 ) ;
#107 = FACE_OUTER_BOUND ( 'NONE', #171, .T. ) ;
#108 = DIRECTION ( 'NONE',  ( 0.0000000000000000000, 1.000000000000000000, 0.0000000000000000000 ) ) ;
#109 = LOCAL_TIME ( 15, 2, 12.00000000000000000, #226 ) ;
#110 = DATE_AND_TIME ( #233, #158 ) ;
#111 = CALENDAR_DATE ( 2021, 30, 11 ) ;
#112 = EDGE_LOOP ( 'NONE', ( #213 ) ) ;
#113 = ORIENTED_EDGE ( 'NONE', *, *, #170, .T. ) ;
#114 = APPROVAL_DATE_TIME ( #44, #77 ) ;
#115 = ADVANCED_FACE ( 'NONE', ( #107 ), #166, .T. ) ;
#116 = EDGE_LOOP ( 'NONE', ( #177 ) ) ;
#117 = FACE_OUTER_BOUND ( 'NONE', #234, .T. ) ;
#118 = AXIS2_PLACEMENT_3D ( 'NONE', #137, #50, #87 ) ;
#119 = DIRECTION ( 'NONE',  ( -4.275831445896958607E-31, -1.000000000000000000, -1.224646799147353207E-16 ) ) ;
#120 = CARTESIAN_POINT ( 'NONE',  ( 7.221231146744935819E-14, -2.532866927106231242E-15, 20.68242801818215426 ) ) ;
#121 = PERSON_AND_ORGANIZATION ( #101, #123 ) ;
#122 = PLANE ( 'NONE',  #118 ) ;
#123 = ORGANIZATION ( 'UNSPECIFIED', 'UNSPECIFIED', '' ) ;
#124 = DIRECTION ( 'NONE',  ( -3.491481338843133355E-15, 1.224646799147353207E-16, -1.000000000000000000 ) ) ;
#125 = ADVANCED_FACE ( 'NONE', ( #135, #242 ), #33, .T. ) ;
#126 = APPLICATION_CONTEXT ( 'configuration controlled 3d designs of mechanical parts and assemblies' ) ;
#127 = DIRECTION ( 'NONE',  ( -3.491481338843133355E-15, 1.224646799147353207E-16, -1.000000000000000000 ) ) ;
#128 = CIRCLE ( 'NONE', #106, 1.893999999999997463 ) ;
#129 = CARTESIAN_POINT ( 'NONE',  ( 6.982962677686265448E-14, 1.893999999999999906, 19.99999999999999645 ) ) ;
#130 = EDGE_CURVE ( 'NONE', #148, #148, #178, .T. ) ;
#131 = COORDINATED_UNIVERSAL_TIME_OFFSET ( 1, 0, .AHEAD. ) ;
#132 = PRODUCT_DEFINITION ( 'UNKNOWN', '', #156, #35 ) ;
#133 = EDGE_LOOP ( 'NONE', ( #153 ) ) ;
#134 = AXIS2_PLACEMENT_3D ( 'NONE', #17, #68, #164 ) ;
#135 = FACE_OUTER_BOUND ( 'NONE', #22, .T. ) ;
#136 = APPLICATION_CONTEXT ( 'configuration controlled 3d designs of mechanical parts and assemblies' ) ;
#137 = CARTESIAN_POINT ( 'NONE',  ( 6.982962677686265448E-14, 4.390874355939612801E-31, 19.99999999999999645 ) ) ;
#138 = APPROVAL_DATE_TIME ( #179, #40 ) ;
#139 = FACE_OUTER_BOUND ( 'NONE', #112, .T. ) ;
#140 = APPROVAL_STATUS ( 'not_yet_approved' ) ;
#141 = CC_DESIGN_SECURITY_CLASSIFICATION ( #175, ( #156 ) ) ;
#142 = DIRECTION ( 'NONE',  ( -3.491481338843133355E-15, 1.224646799147353207E-16, -1.000000000000000000 ) ) ;
#143 = CARTESIAN_POINT ( 'NONE',  ( 8.728703347107825500E-16, -3.061616997868380553E-17, 0.2499999999999997780 ) ) ;
#144 = CC_DESIGN_PERSON_AND_ORGANIZATION_ASSIGNMENT ( #12, #195, ( #156 ) ) ;
#145 = UNCERTAINTY_MEASURE_WITH_UNIT (LENGTH_MEASURE( 1.000000000000000082E-05 ), #59, 'distance_accuracy_value', 'NONE');
#146 = CYLINDRICAL_SURFACE ( 'NONE', #48, 1.893999999999999906 ) ;
#147 = CONICAL_SURFACE ( 'NONE', #19, 1.499999999999996003, 0.5235987755982941527 ) ;
#148 = VERTEX_POINT ( 'NONE', #211 ) ;
#149 = CC_DESIGN_PERSON_AND_ORGANIZATION_ASSIGNMENT ( #74, #94, ( #175 ) ) ;
#150 = EDGE_LOOP ( 'NONE', ( #96 ) ) ;
#151 = APPROVAL_ROLE ( '' ) ;
#152 = LOCAL_TIME ( 15, 2, 12.00000000000000000, #235 ) ;
#153 = ORIENTED_EDGE ( 'NONE', *, *, #170, .F. ) ;
#154 = ORIENTED_EDGE ( 'NONE', *, *, #203, .T. ) ;
#155 = CALENDAR_DATE ( 2021, 30, 11 ) ;
#156 = PRODUCT_DEFINITION_FORMATION_WITH_SPECIFIED_SOURCE ( 'ANY', '', #86, .NOT_KNOWN. ) ;
#157 = FACE_OUTER_BOUND ( 'NONE', #75, .T. ) ;
#158 = LOCAL_TIME ( 15, 2, 12.00000000000000000, #190 ) ;
#159 = DIRECTION ( 'NONE',  ( -3.491481338843133355E-15, 1.224646799147353207E-16, -1.000000000000000000 ) ) ;
#160 = PERSON_AND_ORGANIZATION ( #101, #123 ) ;
#161 = DIRECTION ( 'NONE',  ( -3.491481338843133355E-15, 1.224646799147353207E-16, -1.000000000000000000 ) ) ;
#162 =( NAMED_UNIT ( * ) PLANE_ANGLE_UNIT ( ) SI_UNIT ( $, .RADIAN. ) );
#163 = AXIS2_PLACEMENT_3D ( 'NONE', #16, #228, #119 ) ;
#164 = DIRECTION ( 'NONE',  ( 0.0000000000000000000, 1.000000000000000000, 0.0000000000000000000 ) ) ;
#165 = CC_DESIGN_APPROVAL ( #56, ( #175 ) ) ;
#166 = PLANE ( 'NONE',  #55 ) ;
#167 = DIRECTION ( 'NONE',  ( -3.491481338843133355E-15, 1.224646799147353207E-16, -1.000000000000000000 ) ) ;
#168 = APPROVAL_DATE_TIME ( #110, #56 ) ;
#169 = CARTESIAN_POINT ( 'NONE',  ( 3.785471652766323151E-31, 1.644000000000000128, 1.084202172485504434E-16 ) ) ;
#170 = EDGE_CURVE ( 'NONE', #38, #38, #172, .T. ) ;
#171 = EDGE_LOOP ( 'NONE', ( #194 ) ) ;
#172 = CIRCLE ( 'NONE', #66, 1.200000000000000178 ) ;
#173 = ORIENTED_EDGE ( 'NONE', *, *, #181, .F. ) ;
#174 = SHAPE_DEFINITION_REPRESENTATION ( #90, #207 ) ;
#175 = SECURITY_CLASSIFICATION ( '', '', #58 ) ;
#176 = APPROVAL_ROLE ( '' ) ;
#177 = ORIENTED_EDGE ( 'NONE', *, *, #8, .F. ) ;
#178 = CIRCLE ( 'NONE', #7, 1.499999999999999778 ) ;
#179 = DATE_AND_TIME ( #81, #109 ) ;
#180 = DIRECTION ( 'NONE',  ( -3.491481338843133355E-15, 1.224646799147353207E-16, -1.000000000000000000 ) ) ;
#181 = EDGE_CURVE ( 'NONE', #21, #21, #210, .T. ) ;
#182 = DIRECTION ( 'NONE',  ( 0.0000000000000000000, 1.000000000000000000, 0.0000000000000000000 ) ) ;
#183 = DIRECTION ( 'NONE',  ( 3.491481338843133355E-15, -1.224646799147353207E-16, 1.000000000000000000 ) ) ;
#184 = CIRCLE ( 'NONE', #43, 1.499999999999996003 ) ;
#185 = DIRECTION ( 'NONE',  ( 3.491481338843133355E-15, -1.224646799147353207E-16, 1.000000000000000000 ) ) ;
#186 = DIRECTION ( 'NONE',  ( -3.491481338843133355E-15, 1.224646799147353207E-16, -1.000000000000000000 ) ) ;
#187 = APPROVAL_PERSON_ORGANIZATION ( #14, #40, #237 ) ;
#188 = VERTEX_POINT ( 'NONE', #20 ) ;
#189 = CARTESIAN_POINT ( 'NONE',  ( 1.955229549752154679E-13, 1.199999999999993072, 56.00000000000000000 ) ) ;
#190 = COORDINATED_UNIVERSAL_TIME_OFFSET ( 1, 0, .AHEAD. ) ;
#191 = AXIS2_PLACEMENT_3D ( 'NONE', #202, #186, #29 ) ;
#192 = EDGE_CURVE ( 'NONE', #4, #4, #83, .T. ) ;
#193 = APPROVAL_PERSON_ORGANIZATION ( #160, #77, #176 ) ;
#194 = ORIENTED_EDGE ( 'NONE', *, *, #192, .F. ) ;
#195 = PERSON_AND_ORGANIZATION_ROLE ( 'creator' ) ;
#196 = PERSON_AND_ORGANIZATION ( #101, #123 ) ;
#197 = FACE_OUTER_BOUND ( 'NONE', #217, .T. ) ;
#198 = APPLICATION_PROTOCOL_DEFINITION ( 'international standard', 'config_control_design', 1994, #126 ) ;
#199 = CARTESIAN_POINT ( 'NONE',  ( 1.955229549752154679E-13, -6.858022075225178552E-15, 56.00000000000000000 ) ) ;
#200 = CC_DESIGN_APPROVAL ( #77, ( #156 ) ) ;
#201 = COORDINATED_UNIVERSAL_TIME_OFFSET ( 1, 0, .AHEAD. ) ;
#202 = CARTESIAN_POINT ( 'NONE',  ( -3.243995244288276981E-31, 1.137840362533114497E-32, -9.291171653127443411E-17 ) ) ;
#203 = EDGE_CURVE ( 'NONE', #100, #100, #184, .T. ) ;
#204 = DIRECTION ( 'NONE',  ( 0.0000000000000000000, 1.000000000000000000, 0.0000000000000000000 ) ) ;
#205 = CIRCLE ( 'NONE', #134, 1.894000000000002126 ) ;
#206 = DIRECTION ( 'NONE',  ( 0.0000000000000000000, 1.000000000000000000, 0.0000000000000000000 ) ) ;
#207 = ADVANCED_BREP_SHAPE_REPRESENTATION ( '969431', ( #70, #238, #1 ), #60 ) ;
#208 = PRODUCT_RELATED_PRODUCT_CATEGORY ( 'detail', '', ( #86 ) ) ;
#209 = DIRECTION ( 'NONE',  ( 4.275831445896958607E-31, 1.000000000000000000, 1.224646799147352961E-16 ) ) ;
#210 = CIRCLE ( 'NONE', #191, 1.644000000000000128 ) ;
#211 = CARTESIAN_POINT ( 'NONE',  ( 1.944755105735625216E-13, 1.499999999999993117, 55.70000000000000284 ) ) ;
#212 = ADVANCED_FACE ( 'NONE', ( #243 ), #46, .F. ) ;
#213 = ORIENTED_EDGE ( 'NONE', *, *, #49, .F. ) ;
#214 = EDGE_LOOP ( 'NONE', ( #232 ) ) ;
#215 = DATE_TIME_ROLE ( 'classification_date' ) ;
#216 = AXIS2_PLACEMENT_3D ( 'NONE', #82, #161, #239 ) ;
#217 = EDGE_LOOP ( 'NONE', ( #25 ) ) ;
#218 = ORIENTED_EDGE ( 'NONE', *, *, #130, .T. ) ;
#219 = PERSON_AND_ORGANIZATION_ROLE ( 'creator' ) ;
#220 = DIRECTION ( 'NONE',  ( -3.491481338843133355E-15, 1.224646799147353207E-16, -1.000000000000000000 ) ) ;
#221 = CARTESIAN_POINT ( 'NONE',  ( 0.0000000000000000000, 0.0000000000000000000, 0.0000000000000000000 ) ) ;
#222 = DIRECTION ( 'NONE',  ( 4.275831445896959482E-31, 1.000000000000000000, 1.224646799147353207E-16 ) ) ;
#223 = LOCAL_TIME ( 15, 2, 12.00000000000000000, #201 ) ;
#224 = DIRECTION ( 'NONE',  ( 1.000000000000000000, 0.0000000000000000000, 0.0000000000000000000 ) ) ;
#225 = DIRECTION ( 'NONE',  ( 0.0000000000000000000, 1.000000000000000000, 0.0000000000000000000 ) ) ;
#226 = COORDINATED_UNIVERSAL_TIME_OFFSET ( 1, 0, .AHEAD. ) ;
#227 = CARTESIAN_POINT ( 'NONE',  ( 6.982962677686265448E-14, 4.390874355939612801E-31, 19.99999999999999645 ) ) ;
#228 = DIRECTION ( 'NONE',  ( 3.491481338843133355E-15, -1.224646799147353207E-16, 1.000000000000000000 ) ) ;
#229 = AXIS2_PLACEMENT_3D ( 'NONE', #13, #183, #102 ) ;
#230 = ORIENTED_EDGE ( 'NONE', *, *, #8, .T. ) ;
#231 = ADVANCED_FACE ( 'NONE', ( #139, #52 ), #146, .T. ) ;
#232 = ORIENTED_EDGE ( 'NONE', *, *, #203, .F. ) ;
#233 = CALENDAR_DATE ( 2021, 30, 11 ) ;
#234 = EDGE_LOOP ( 'NONE', ( #6 ) ) ;
#235 = COORDINATED_UNIVERSAL_TIME_OFFSET ( 1, 0, .AHEAD. ) ;
#236 = DIRECTION ( 'NONE',  ( -4.275831445896958607E-31, -1.000000000000000000, -1.224646799147353207E-16 ) ) ;
#237 = APPROVAL_ROLE ( '' ) ;
#238 = MANIFOLD_SOLID_BREP ( 'Corps-Déplacer/Copier1[2]', #240 ) ;
#239 = DIRECTION ( 'NONE',  ( 4.275831445896958607E-31, 1.000000000000000000, 1.224646799147353207E-16 ) ) ;
#240 = CLOSED_SHELL ( 'NONE', ( #71, #37, #231, #115 ) ) ;
#241 = CYLINDRICAL_SURFACE ( 'NONE', #95, 1.499999999999997780 ) ;
#242 = FACE_BOUND ( 'NONE', #98, .T. ) ;
#243 = FACE_OUTER_BOUND ( 'NONE', #133, .T. ) ;
ENDSEC;
END-ISO-10303-21;
