ISO-10303-21;
HEADER;
FILE_DESCRIPTION (( 'STEP AP203' ),
    '1' );
FILE_NAME ('969429.step',
    '2021-11-30T14:02:11',
    ( '' ),
    ( '' ),
    'SwSTEP 2.0',
    'SolidWorks 2019',
    '' );
FILE_SCHEMA (( 'CONFIG_CONTROL_DESIGN' ));
ENDSEC;

DATA;
#1 = CARTESIAN_POINT ( 'NONE',  ( -3.439906398224104004E-31, 1.206556745151464960E-32, -9.852283499140458772E-17 ) ) ;
#2 = FACE_OUTER_BOUND ( 'NONE', #32, .T. ) ;
#3 = APPLICATION_CONTEXT ( 'configuration controlled 3d designs of mechanical parts and assemblies' ) ;
#4 = CC_DESIGN_PERSON_AND_ORGANIZATION_ASSIGNMENT ( #232, #7, ( #19 ) ) ;
#5 = DIRECTION ( 'NONE',  ( 0.0000000000000000000, 1.000000000000000000, 0.0000000000000000000 ) ) ;
#6 = APPLICATION_PROTOCOL_DEFINITION ( 'international standard', 'config_control_design', 1994, #133 ) ;
#7 = PERSON_AND_ORGANIZATION_ROLE ( 'design_owner' ) ;
#8 = EDGE_LOOP ( 'NONE', ( #236 ) ) ;
#9 = DATE_AND_TIME ( #238, #23 ) ;
#10 = ORIENTED_EDGE ( 'NONE', *, *, #214, .T. ) ;
#11 = ORIENTED_EDGE ( 'NONE', *, *, #72, .T. ) ;
#12 = EDGE_LOOP ( 'NONE', ( #76 ) ) ;
#13 = PERSON_AND_ORGANIZATION ( #41, #35 ) ;
#14 = EDGE_LOOP ( 'NONE', ( #115 ) ) ;
#15 = PRODUCT_RELATED_PRODUCT_CATEGORY ( 'detail', '', ( #19 ) ) ;
#16 = DIRECTION ( 'NONE',  ( -3.491481338843133355E-15, 1.224646799147353207E-16, -1.000000000000000000 ) ) ;
#17 = FACE_BOUND ( 'NONE', #12, .T. ) ;
#18 = DIRECTION ( 'NONE',  ( -4.275831445896958607E-31, -1.000000000000000000, -1.224646799147353207E-16 ) ) ;
#19 = PRODUCT ( '969429', '969429', '', ( #47 ) ) ;
#20 = DIRECTION ( 'NONE',  ( 4.275831445896958607E-31, 1.000000000000000000, 1.224646799147353207E-16 ) ) ;
#21 = CONICAL_SURFACE ( 'NONE', #120, 1.858999999999997543, 0.7853981633974426169 ) ;
#22 = CARTESIAN_POINT ( 'NONE',  ( 8.728703347107825500E-16, -3.061616997868380553E-17, 0.2499999999999997780 ) ) ;
#23 = LOCAL_TIME ( 15, 2, 11.00000000000000000, #24 ) ;
#24 = COORDINATED_UNIVERSAL_TIME_OFFSET ( 1, 0, .AHEAD. ) ;
#25 = VERTEX_POINT ( 'NONE', #89 ) ;
#26 = CC_DESIGN_DATE_AND_TIME_ASSIGNMENT ( #50, #118, ( #140 ) ) ;
#27 = AXIS2_PLACEMENT_3D ( 'NONE', #77, #119, #160 ) ;
#28 = ORIENTED_EDGE ( 'NONE', *, *, #214, .F. ) ;
#29 = EDGE_CURVE ( 'NONE', #25, #25, #205, .T. ) ;
#30 = ORIENTED_EDGE ( 'NONE', *, *, #201, .T. ) ;
#31 = EDGE_LOOP ( 'NONE', ( #10 ) ) ;
#32 = EDGE_LOOP ( 'NONE', ( #11 ) ) ;
#33 = CARTESIAN_POINT ( 'NONE',  ( 7.200065165990993919E-14, -2.525442900435157115E-15, 20.62180623991724460 ) ) ;
#34 = SHAPE_DEFINITION_REPRESENTATION ( #143, #203 ) ;
#35 = ORGANIZATION ( 'UNSPECIFIED', 'UNSPECIFIED', '' ) ;
#36 = CARTESIAN_POINT ( 'NONE',  ( 6.982962677686265448E-14, -2.449293598294706119E-15, 19.99999999999999645 ) ) ;
#37 = DIRECTION ( 'NONE',  ( 0.0000000000000000000, 1.000000000000000000, 0.0000000000000000000 ) ) ;
#38 = CARTESIAN_POINT ( 'NONE',  ( 1.955229549752154679E-13, 8.998558695971043013E-33, 56.00000000000000000 ) ) ;
#39 = DIRECTION ( 'NONE',  ( -3.491481338843133355E-15, 1.224646799147353207E-16, -1.000000000000000000 ) ) ;
#40 = AXIS2_PLACEMENT_3D ( 'NONE', #48, #109, #87 ) ;
#41 = PERSON ( 'UNSPECIFIED', 'UNSPECIFIED', 'UNSPECIFIED', ('UNSPECIFIED'), ('UNSPECIFIED'), ('UNSPECIFIED') ) ;
#42 = EDGE_CURVE ( 'NONE', #183, #183, #110, .T. ) ;
#43 = LOCAL_TIME ( 15, 2, 11.00000000000000000, #155 ) ;
#44 = VERTEX_POINT ( 'NONE', #68 ) ;
#45 = ADVANCED_FACE ( 'NONE', ( #193, #240 ), #156, .T. ) ;
#46 = APPROVAL_ROLE ( '' ) ;
#47 = MECHANICAL_CONTEXT ( 'NONE', #133, 'mechanical' ) ;
#48 = CARTESIAN_POINT ( 'NONE',  ( 0.0000000000000000000, 0.0000000000000000000, 0.0000000000000000000 ) ) ;
#49 = CLOSED_SHELL ( 'NONE', ( #93, #146, #107, #55 ) ) ;
#50 = DATE_AND_TIME ( #166, #233 ) ;
#51 = ORIENTED_EDGE ( 'NONE', *, *, #29, .T. ) ;
#52 = EDGE_LOOP ( 'NONE', ( #192 ) ) ;
#53 = DATE_AND_TIME ( #152, #184 ) ;
#54 = PRODUCT_DEFINITION_FORMATION_WITH_SPECIFIED_SOURCE ( 'ANY', '', #19, .NOT_KNOWN. ) ;
#55 = ADVANCED_FACE ( 'NONE', ( #102 ), #179, .T. ) ;
#56 = PERSON_AND_ORGANIZATION ( #41, #35 ) ;
#57 = DIRECTION ( 'NONE',  ( -3.491481338843133355E-15, 1.224646799147353207E-16, -1.000000000000000000 ) ) ;
#58 = PLANE ( 'NONE',  #135 ) ;
#59 = CC_DESIGN_APPROVAL ( #127, ( #140 ) ) ;
#60 = CARTESIAN_POINT ( 'NONE',  ( -6.879812796448208008E-31, 2.413113490302929920E-32, -1.970456699828091754E-16 ) ) ;
#61 = DIRECTION ( 'NONE',  ( 0.0000000000000000000, 1.000000000000000000, 0.0000000000000000000 ) ) ;
#62 = CARTESIAN_POINT ( 'NONE',  ( 6.982962677686265448E-14, 4.388249776319953902E-31, 19.99999999999999645 ) ) ;
#63 = DIRECTION ( 'NONE',  ( 0.0000000000000000000, 1.000000000000000000, 0.0000000000000000000 ) ) ;
#64 = AXIS2_PLACEMENT_3D ( 'NONE', #62, #222, #18 ) ;
#65 = CARTESIAN_POINT ( 'NONE',  ( 0.0000000000000000000, 1.609000000000000430, 0.0000000000000000000 ) ) ;
#66 = AXIS2_PLACEMENT_3D ( 'NONE', #36, #16, #137 ) ;
#67 = VERTEX_POINT ( 'NONE', #181 ) ;
#68 = CARTESIAN_POINT ( 'NONE',  ( 6.982962677686265448E-14, 1.858999999999999542, 19.99999999999999645 ) ) ;
#69 = APPROVAL_ROLE ( '' ) ;
#70 = CC_DESIGN_APPROVAL ( #162, ( #54 ) ) ;
#71 = CALENDAR_DATE ( 2021, 30, 11 ) ;
#72 = EDGE_CURVE ( 'NONE', #185, #185, #177, .T. ) ;
#73 = PERSON_AND_ORGANIZATION ( #41, #35 ) ;
#74 = UNCERTAINTY_MEASURE_WITH_UNIT (LENGTH_MEASURE( 1.000000000000000082E-05 ), #147, 'distance_accuracy_value', 'NONE');
#75 = AXIS2_PLACEMENT_3D ( 'NONE', #60, #39, #20 ) ;
#76 = ORIENTED_EDGE ( 'NONE', *, *, #42, .T. ) ;
#77 = CARTESIAN_POINT ( 'NONE',  ( 6.982962677686265448E-14, 4.388249776319953902E-31, 19.99999999999999645 ) ) ;
#78 = ADVANCED_FACE ( 'NONE', ( #223, #17 ), #144, .T. ) ;
#79 = DIRECTION ( 'NONE',  ( 3.491481338843133355E-15, -1.224646799147353207E-16, 1.000000000000000000 ) ) ;
#80 = APPROVAL_DATE_TIME ( #121, #127 ) ;
#81 = AXIS2_PLACEMENT_3D ( 'NONE', #106, #159, #83 ) ;
#82 = CARTESIAN_POINT ( 'NONE',  ( 7.200065165990993919E-14, -2.525442900435157115E-15, 20.62180623991724460 ) ) ;
#83 = DIRECTION ( 'NONE',  ( 4.275831445896958607E-31, 1.000000000000000000, 1.224646799147353207E-16 ) ) ;
#84 = CC_DESIGN_PERSON_AND_ORGANIZATION_ASSIGNMENT ( #114, #172, ( #54 ) ) ;
#85 = DIRECTION ( 'NONE',  ( 3.491481338843133355E-15, -1.224646799147353207E-16, 1.000000000000000000 ) ) ;
#86 = AXIS2_PLACEMENT_3D ( 'NONE', #174, #57, #154 ) ;
#87 = DIRECTION ( 'NONE',  ( 1.000000000000000000, 0.0000000000000000000, 0.0000000000000000000 ) ) ;
#88 = APPLICATION_PROTOCOL_DEFINITION ( 'international standard', 'config_control_design', 1994, #3 ) ;
#89 = CARTESIAN_POINT ( 'NONE',  ( 1.955229549752154679E-13, 1.199999999999993072, 56.00000000000000000 ) ) ;
#90 = EDGE_CURVE ( 'NONE', #164, #164, #148, .T. ) ;
#91 = CARTESIAN_POINT ( 'NONE',  ( 7.200065165990993919E-14, 1.499999999999993339, 20.62180623991724460 ) ) ;
#92 = CARTESIAN_POINT ( 'NONE',  ( 1.944755105735625216E-13, 1.499999999999993117, 55.70000000000000284 ) ) ;
#93 = ADVANCED_FACE ( 'NONE', ( #2 ), #211, .F. ) ;
#94 = ORIENTED_EDGE ( 'NONE', *, *, #90, .F. ) ;
#95 = ORIENTED_EDGE ( 'NONE', *, *, #112, .T. ) ;
#96 = COORDINATED_UNIVERSAL_TIME_OFFSET ( 1, 0, .AHEAD. ) ;
#97 = APPROVAL_DATE_TIME ( #9, #124 ) ;
#98 = EDGE_LOOP ( 'NONE', ( #189 ) ) ;
#99 = PERSON_AND_ORGANIZATION_ROLE ( 'creator' ) ;
#100 = COORDINATED_UNIVERSAL_TIME_OFFSET ( 1, 0, .AHEAD. ) ;
#101 = CLOSED_SHELL ( 'NONE', ( #158, #78, #45, #235, #191 ) ) ;
#102 = FACE_OUTER_BOUND ( 'NONE', #187, .T. ) ;
#103 = CARTESIAN_POINT ( 'NONE',  ( 0.0000000000000000000, 0.0000000000000000000, 0.0000000000000000000 ) ) ;
#104 = FACE_OUTER_BOUND ( 'NONE', #98, .T. ) ;
#105 = AXIS2_PLACEMENT_3D ( 'NONE', #218, #212, #210 ) ;
#106 = CARTESIAN_POINT ( 'NONE',  ( 0.0000000000000000000, 0.0000000000000000000, 0.0000000000000000000 ) ) ;
#107 = ADVANCED_FACE ( 'NONE', ( #198, #122 ), #142, .T. ) ;
#108 = FACE_OUTER_BOUND ( 'NONE', #221, .T. ) ;
#109 = DIRECTION ( 'NONE',  ( 0.0000000000000000000, 0.0000000000000000000, 1.000000000000000000 ) ) ;
#110 = CIRCLE ( 'NONE', #132, 1.499999999999996003 ) ;
#111 = AXIS2_PLACEMENT_3D ( 'NONE', #227, #128, #5 ) ;
#112 = EDGE_CURVE ( 'NONE', #67, #67, #215, .T. ) ;
#113 = EDGE_LOOP ( 'NONE', ( #28 ) ) ;
#114 = PERSON_AND_ORGANIZATION ( #41, #35 ) ;
#115 = ORIENTED_EDGE ( 'NONE', *, *, #201, .F. ) ;
#116 = EDGE_LOOP ( 'NONE', ( #51 ) ) ;
#117 = DATE_TIME_ROLE ( 'creation_date' ) ;
#118 = DATE_TIME_ROLE ( 'classification_date' ) ;
#119 = DIRECTION ( 'NONE',  ( 3.491481338843133355E-15, -1.224646799147353207E-16, 1.000000000000000000 ) ) ;
#120 = AXIS2_PLACEMENT_3D ( 'NONE', #22, #79, #196 ) ;
#121 = DATE_AND_TIME ( #157, #43 ) ;
#122 = FACE_OUTER_BOUND ( 'NONE', #234, .T. ) ;
#123 = CARTESIAN_POINT ( 'NONE',  ( 1.944755105735625216E-13, -6.821282671250756903E-15, 55.70000000000000284 ) ) ;
#124 = APPROVAL ( #202, 'UNSPECIFIED' ) ;
#125 = CC_DESIGN_APPROVAL ( #124, ( #231 ) ) ;
#126 = DIRECTION ( 'NONE',  ( -4.275831445896958607E-31, -1.000000000000000000, -1.224646799147353207E-16 ) ) ;
#127 = APPROVAL ( #213, 'UNSPECIFIED' ) ;
#128 = DIRECTION ( 'NONE',  ( -3.491481338843133355E-15, 1.224646799147353207E-16, -1.000000000000000000 ) ) ;
#129 = PERSON_AND_ORGANIZATION ( #41, #35 ) ;
#130 = MANIFOLD_SOLID_BREP ( 'Corps-Déplacer/Copier1[2]', #49 ) ;
#131 = MANIFOLD_SOLID_BREP ( 'Corps-Déplacer/Copier1[1]', #101 ) ;
#132 = AXIS2_PLACEMENT_3D ( 'NONE', #82, #141, #226 ) ;
#133 = APPLICATION_CONTEXT ( 'configuration controlled 3d designs of mechanical parts and assemblies' ) ;
#134 = APPROVAL_DATE_TIME ( #53, #162 ) ;
#135 = AXIS2_PLACEMENT_3D ( 'NONE', #38, #176, #138 ) ;
#136 = COORDINATED_UNIVERSAL_TIME_OFFSET ( 1, 0, .AHEAD. ) ;
#137 = DIRECTION ( 'NONE',  ( 0.0000000000000000000, 1.000000000000000000, 0.0000000000000000000 ) ) ;
#138 = DIRECTION ( 'NONE',  ( 4.275831445896958607E-31, 1.000000000000000000, 1.224646799147353207E-16 ) ) ;
#139 = APPROVAL_PERSON_ORGANIZATION ( #149, #127, #199 ) ;
#140 = SECURITY_CLASSIFICATION ( '', '', #170 ) ;
#141 = DIRECTION ( 'NONE',  ( -3.491481338843133355E-15, 1.224646799147353207E-16, -1.000000000000000000 ) ) ;
#142 = CYLINDRICAL_SURFACE ( 'NONE', #81, 1.858999999999999764 ) ;
#143 = PRODUCT_DEFINITION_SHAPE ( 'NONE', 'NONE',  #231 ) ;
#144 = CONICAL_SURFACE ( 'NONE', #161, 1.499999999999996003, 0.5235987755982912661 ) ;
#145 = FACE_BOUND ( 'NONE', #116, .T. ) ;
#146 = ADVANCED_FACE ( 'NONE', ( #241, #178 ), #21, .T. ) ;
#147 =( LENGTH_UNIT ( ) NAMED_UNIT ( * ) SI_UNIT ( .MILLI., .METRE. ) );
#148 = CIRCLE ( 'NONE', #86, 1.858999999999997543 ) ;
#149 = PERSON_AND_ORGANIZATION ( #41, #35 ) ;
#150 = CC_DESIGN_PERSON_AND_ORGANIZATION_ASSIGNMENT ( #56, #237, ( #231 ) ) ;
#151 = ORIENTED_EDGE ( 'NONE', *, *, #42, .F. ) ;
#152 = CALENDAR_DATE ( 2021, 30, 11 ) ;
#153 = EDGE_LOOP ( 'NONE', ( #94 ) ) ;
#154 = DIRECTION ( 'NONE',  ( 4.144012790505084925E-31, 1.000000000000000000, 1.166435903696079361E-16 ) ) ;
#155 = COORDINATED_UNIVERSAL_TIME_OFFSET ( 1, 0, .AHEAD. ) ;
#156 = CYLINDRICAL_SURFACE ( 'NONE', #209, 1.499999999999997780 ) ;
#157 = CALENDAR_DATE ( 2021, 30, 11 ) ;
#158 = ADVANCED_FACE ( 'NONE', ( #108 ), #206, .F. ) ;
#159 = DIRECTION ( 'NONE',  ( -3.491481338843133355E-15, 1.224646799147353207E-16, -1.000000000000000000 ) ) ;
#160 = DIRECTION ( 'NONE',  ( -4.275831445896958607E-31, -1.000000000000000000, -1.224646799147353207E-16 ) ) ;
#161 = AXIS2_PLACEMENT_3D ( 'NONE', #33, #175, #37 ) ;
#162 = APPROVAL ( #169, 'UNSPECIFIED' ) ;
#163 = CIRCLE ( 'NONE', #239, 1.499999999999999778 ) ;
#164 = VERTEX_POINT ( 'NONE', #200 ) ;
#165 = ORIENTED_EDGE ( 'NONE', *, *, #112, .F. ) ;
#166 = CALENDAR_DATE ( 2021, 30, 11 ) ;
#167 = CC_DESIGN_SECURITY_CLASSIFICATION ( #140, ( #54 ) ) ;
#168 = EDGE_LOOP ( 'NONE', ( #151 ) ) ;
#169 = APPROVAL_STATUS ( 'not_yet_approved' ) ;
#170 = SECURITY_CLASSIFICATION_LEVEL ( 'unclassified' ) ;
#171 = CC_DESIGN_PERSON_AND_ORGANIZATION_ASSIGNMENT ( #73, #204, ( #140 ) ) ;
#172 = PERSON_AND_ORGANIZATION_ROLE ( 'design_supplier' ) ;
#173 =( GEOMETRIC_REPRESENTATION_CONTEXT ( 3 ) GLOBAL_UNCERTAINTY_ASSIGNED_CONTEXT ( ( #74 ) ) GLOBAL_UNIT_ASSIGNED_CONTEXT ( ( #147, #217, #216 ) ) REPRESENTATION_CONTEXT ( 'NONE', 'WORKASPACE' ) );
#174 = CARTESIAN_POINT ( 'NONE',  ( 8.728703347107825500E-16, -3.061616997868380553E-17, 0.2499999999999997780 ) ) ;
#175 = DIRECTION ( 'NONE',  ( -3.491481338843133355E-15, 1.224646799147353207E-16, -1.000000000000000000 ) ) ;
#176 = DIRECTION ( 'NONE',  ( -3.491481338843133355E-15, 1.224646799147353207E-16, -1.000000000000000000 ) ) ;
#177 = CIRCLE ( 'NONE', #75, 1.609000000000000430 ) ;
#178 = FACE_OUTER_BOUND ( 'NONE', #52, .T. ) ;
#179 = PLANE ( 'NONE',  #64 ) ;
#180 = CC_DESIGN_PERSON_AND_ORGANIZATION_ASSIGNMENT ( #13, #99, ( #54 ) ) ;
#181 = CARTESIAN_POINT ( 'NONE',  ( 6.982962677686265448E-14, 1.858999999999999542, 19.99999999999999645 ) ) ;
#182 = AXIS2_PLACEMENT_3D ( 'NONE', #1, #85, #126 ) ;
#183 = VERTEX_POINT ( 'NONE', #91 ) ;
#184 = LOCAL_TIME ( 15, 2, 11.00000000000000000, #100 ) ;
#185 = VERTEX_POINT ( 'NONE', #65 ) ;
#186 = CC_DESIGN_DATE_AND_TIME_ASSIGNMENT ( #219, #117, ( #231 ) ) ;
#187 = EDGE_LOOP ( 'NONE', ( #165 ) ) ;
#188 = APPROVAL_PERSON_ORGANIZATION ( #129, #124, #46 ) ;
#189 = ORIENTED_EDGE ( 'NONE', *, *, #29, .F. ) ;
#190 = PERSON_AND_ORGANIZATION ( #41, #35 ) ;
#191 = ADVANCED_FACE ( 'NONE', ( #104 ), #58, .F. ) ;
#192 = ORIENTED_EDGE ( 'NONE', *, *, #90, .T. ) ;
#193 = FACE_OUTER_BOUND ( 'NONE', #168, .T. ) ;
#194 = CONICAL_SURFACE ( 'NONE', #111, 1.200000000000000178, 0.7853981633974450594 ) ;
#195 = DIRECTION ( 'NONE',  ( 4.275831445896959482E-31, 1.000000000000000000, 1.224646799147353207E-16 ) ) ;
#196 = DIRECTION ( 'NONE',  ( -4.144012790505084925E-31, -1.000000000000000000, -1.166435903696079361E-16 ) ) ;
#197 = DIRECTION ( 'NONE',  ( -3.491481338843133355E-15, 1.224646799147353207E-16, -1.000000000000000000 ) ) ;
#198 = FACE_OUTER_BOUND ( 'NONE', #153, .T. ) ;
#199 = APPROVAL_ROLE ( '' ) ;
#200 = CARTESIAN_POINT ( 'NONE',  ( 8.728703347107833388E-16, 1.858999999999997543, 0.2500000000000000000 ) ) ;
#201 = EDGE_CURVE ( 'NONE', #44, #44, #220, .T. ) ;
#202 = APPROVAL_STATUS ( 'not_yet_approved' ) ;
#203 = ADVANCED_BREP_SHAPE_REPRESENTATION ( '969429', ( #131, #130, #40 ), #173 ) ;
#204 = PERSON_AND_ORGANIZATION_ROLE ( 'classification_officer' ) ;
#205 = CIRCLE ( 'NONE', #105, 1.200000000000000178 ) ;
#206 = PLANE ( 'NONE',  #27 ) ;
#207 = DESIGN_CONTEXT ( 'detailed design', #3, 'design' ) ;
#208 = DIRECTION ( 'NONE',  ( -3.491481338843133355E-15, 1.224646799147353207E-16, -1.000000000000000000 ) ) ;
#209 = AXIS2_PLACEMENT_3D ( 'NONE', #103, #208, #195 ) ;
#210 = DIRECTION ( 'NONE',  ( 0.0000000000000000000, 1.000000000000000000, 0.0000000000000000000 ) ) ;
#211 = PLANE ( 'NONE',  #182 ) ;
#212 = DIRECTION ( 'NONE',  ( -3.491481338843133355E-15, 1.224646799147353207E-16, -1.000000000000000000 ) ) ;
#213 = APPROVAL_STATUS ( 'not_yet_approved' ) ;
#214 = EDGE_CURVE ( 'NONE', #230, #230, #163, .T. ) ;
#215 = CIRCLE ( 'NONE', #66, 1.859000000000001984 ) ;
#216 =( NAMED_UNIT ( * ) SI_UNIT ( $, .STERADIAN. ) SOLID_ANGLE_UNIT ( ) );
#217 =( NAMED_UNIT ( * ) PLANE_ANGLE_UNIT ( ) SI_UNIT ( $, .RADIAN. ) );
#218 = CARTESIAN_POINT ( 'NONE',  ( 1.955229549752154679E-13, -6.858022075225178552E-15, 56.00000000000000000 ) ) ;
#219 = DATE_AND_TIME ( #71, #243 ) ;
#220 = CIRCLE ( 'NONE', #229, 1.859000000000001984 ) ;
#221 = EDGE_LOOP ( 'NONE', ( #30 ) ) ;
#222 = DIRECTION ( 'NONE',  ( 3.491481338843133355E-15, -1.224646799147353207E-16, 1.000000000000000000 ) ) ;
#223 = FACE_OUTER_BOUND ( 'NONE', #14, .T. ) ;
#224 = APPROVAL_PERSON_ORGANIZATION ( #190, #162, #69 ) ;
#225 = DIRECTION ( 'NONE',  ( -3.491481338843133355E-15, 1.224646799147353207E-16, -1.000000000000000000 ) ) ;
#226 = DIRECTION ( 'NONE',  ( 0.0000000000000000000, 1.000000000000000000, 0.0000000000000000000 ) ) ;
#227 = CARTESIAN_POINT ( 'NONE',  ( 1.955229549752154679E-13, -6.858022075225178552E-15, 56.00000000000000000 ) ) ;
#228 = FACE_OUTER_BOUND ( 'NONE', #113, .T. ) ;
#229 = AXIS2_PLACEMENT_3D ( 'NONE', #242, #225, #61 ) ;
#230 = VERTEX_POINT ( 'NONE', #92 ) ;
#231 = PRODUCT_DEFINITION ( 'UNKNOWN', '', #54, #207 ) ;
#232 = PERSON_AND_ORGANIZATION ( #41, #35 ) ;
#233 = LOCAL_TIME ( 15, 2, 11.00000000000000000, #136 ) ;
#234 = EDGE_LOOP ( 'NONE', ( #95 ) ) ;
#235 = ADVANCED_FACE ( 'NONE', ( #228, #145 ), #194, .T. ) ;
#236 = ORIENTED_EDGE ( 'NONE', *, *, #72, .F. ) ;
#237 = PERSON_AND_ORGANIZATION_ROLE ( 'creator' ) ;
#238 = CALENDAR_DATE ( 2021, 30, 11 ) ;
#239 = AXIS2_PLACEMENT_3D ( 'NONE', #123, #197, #63 ) ;
#240 = FACE_OUTER_BOUND ( 'NONE', #31, .T. ) ;
#241 = FACE_BOUND ( 'NONE', #8, .T. ) ;
#242 = CARTESIAN_POINT ( 'NONE',  ( 6.982962677686265448E-14, -2.449293598294706119E-15, 19.99999999999999645 ) ) ;
#243 = LOCAL_TIME ( 15, 2, 11.00000000000000000, #96 ) ;
ENDSEC;
END-ISO-10303-21;
